  0
SECTION
  2
HEADER
  9
$ACADVER
  1
AC1015
  9
$ACADMAINTVER
 70
     6
  9
$DWGCODEPAGE
  3
ANSI_1254
  9
$INSBASE
 10
0.0
 20
0.0
 30
0.0
  9
$EXTMIN
 10
0.0
 20
0.0
 30
0.0
  9
$EXTMAX
 10
279.4
 20
215.9
 30
0.0
  9
$LIMMIN
 10
0.0
 20
0.0
  9
$LIMMAX
 10
279.4
 20
215.9
  9
$ORTHOMODE
 70
     0
  9
$REGENMODE
 70
     1
  9
$FILLMODE
 70
     1
  9
$QTEXTMODE
 70
     0
  9
$MIRRTEXT
 70
     1
  9
$LTSCALE
 40
1.0
  9
$ATTMODE
 70
     1
  9
$TEXTSIZE
 40
3.5
  9
$TRACEWID
 40
1.0
  9
$TEXTSTYLE
  7
Standard
  9
$CLAYER
  8
0
  9
$CELTYPE
  6
ByLayer
  9
$CECOLOR
 62
   256
  9
$CELTSCALE
 40
1.0
  9
$DISPSILH
 70
     0
  9
$DIMSCALE
 40
1.0
  9
$DIMASZ
 40
3.5
  9
$DIMEXO
 40
1.0
  9
$DIMDLI
 40
3.75
  9
$DIMRND
 40
0.0
  9
$DIMDLE
 40
0.0
  9
$DIMEXE
 40
1.0
  9
$DIMTP
 40
0.0
  9
$DIMTM
 40
0.0
  9
$DIMTXT
 40
3.5
  9
$DIMCEN
 40
2.5
  9
$DIMTSZ
 40
0.0
  9
$DIMTOL
 70
     0
  9
$DIMLIM
 70
     0
  9
$DIMTIH
 70
     1
  9
$DIMTOH
 70
     1
  9
$DIMSE1
 70
     0
  9
$DIMSE2
 70
     0
  9
$DIMTAD
 70
     1
  9
$DIMZIN
 70
     0
  9
$DIMBLK
  1

  9
$DIMASO
 70
     1
  9
$DIMSHO
 70
     1
  9
$DIMPOST
  1

  9
$DIMAPOST
  1

  9
$DIMALT
 70
     0
  9
$DIMALTD
 70
     3
  9
$DIMALTF
 40
0.0393700787
  9
$DIMLFAC
 40
1.0
  9
$DIMTOFL
 70
     1
  9
$DIMTVP
 40
0.0
  9
$DIMTIX
 70
     0
  9
$DIMSOXD
 70
     0
  9
$DIMSAH
 70
     0
  9
$DIMBLK1
  1

  9
$DIMBLK2
  1

  9
$DIMSTYLE
  2
ISO-25
  9
$DIMCLRD
 70
     0
  9
$DIMCLRE
 70
     0
  9
$DIMCLRT
 70
     0
  9
$DIMTFAC
 40
1.0
  9
$DIMGAP
 40
1.524
  9
$DIMJUST
 70
     0
  9
$DIMSD1
 70
     0
  9
$DIMSD2
 70
     0
  9
$DIMTOLJ
 70
     0
  9
$DIMTZIN
 70
     0
  9
$DIMALTZ
 70
     0
  9
$DIMALTTZ
 70
     0
  9
$DIMUPT
 70
     0
  9
$DIMDEC
 70
     2
  9
$DIMTDEC
 70
     2
  9
$DIMALTU
 70
     2
  9
$DIMALTTD
 70
     3
  9
$DIMTXSTY
  7
Standard
  9
$DIMAUNIT
 70
     0
  9
$DIMADEC
 70
     2
  9
$DIMALTRND
 40
0.0
  9
$DIMAZIN
 70
     0
  9
$DIMDSEP
 70
    44
  9
$DIMATFIT
 70
     3
  9
$DIMFRAC
 70
     0
  9
$DIMLDRBLK
  1

  9
$DIMLUNIT
 70
     2
  9
$DIMLWD
 70
    -2
  9
$DIMLWE
 70
    -2
  9
$DIMTMOVE
 70
     0
  9
$LUNITS
 70
     2
  9
$LUPREC
 70
     2
  9
$SKETCHINC
 40
1.0
  9
$FILLETRAD
 40
10.0
  9
$AUNITS
 70
     0
  9
$AUPREC
 70
     2
  9
$MENU
  1
.
  9
$ELEVATION
 40
0.0
  9
$PELEVATION
 40
0.0
  9
$THICKNESS
 40
0.0
  9
$LIMCHECK
 70
     0
  9
$CHAMFERA
 40
0.0
  9
$CHAMFERB
 40
0.0
  9
$CHAMFERC
 40
0.0
  9
$CHAMFERD
 40
0.0
  9
$SKPOLY
 70
     0
  9
$TDCREATE
 40
2459947.373802165
  9
$TDUCREATE
 40
2459947.248802165
  9
$TDUPDATE
 40
2459947.373802349
  9
$TDUUPDATE
 40
2459947.248802349
  9
$TDINDWG
 40
0.0000000116
  9
$TDUSRTIMER
 40
0.0000000116
  9
$USRTIMER
 70
     1
  9
$ANGBASE
 50
0.0
  9
$ANGDIR
 70
     0
  9
$PDMODE
 70
     0
  9
$PDSIZE
 40
-1.0
  9
$PLINEWID
 40
0.0
  9
$SPLFRAME
 70
     0
  9
$SPLINETYPE
 70
     6
  9
$SPLINESEGS
 70
     8
  9
$HANDSEED
  5
172
  9
$SURFTAB1
 70
     6
  9
$SURFTAB2
 70
     6
  9
$SURFTYPE
 70
     6
  9
$SURFU
 70
     6
  9
$SURFV
 70
     6
  9
$UCSBASE
  2

  9
$UCSNAME
  2

  9
$UCSORG
 10
0.0
 20
0.0
 30
0.0
  9
$UCSXDIR
 10
1.0
 20
0.0
 30
0.0
  9
$UCSYDIR
 10
0.0
 20
1.0
 30
0.0
  9
$UCSORTHOREF
  2

  9
$UCSORTHOVIEW
 70
     0
  9
$UCSORGTOP
 10
0.0
 20
0.0
 30
0.0
  9
$UCSORGBOTTOM
 10
0.0
 20
0.0
 30
0.0
  9
$UCSORGLEFT
 10
0.0
 20
0.0
 30
0.0
  9
$UCSORGRIGHT
 10
0.0
 20
0.0
 30
0.0
  9
$UCSORGFRONT
 10
0.0
 20
0.0
 30
0.0
  9
$UCSORGBACK
 10
0.0
 20
0.0
 30
0.0
  9
$PUCSBASE
  2

  9
$PUCSNAME
  2

  9
$PUCSORG
 10
0.0
 20
0.0
 30
0.0
  9
$PUCSXDIR
 10
1.0
 20
0.0
 30
0.0
  9
$PUCSYDIR
 10
0.0
 20
1.0
 30
0.0
  9
$PUCSORTHOREF
  2

  9
$PUCSORTHOVIEW
 70
     0
  9
$PUCSORGTOP
 10
0.0
 20
0.0
 30
0.0
  9
$PUCSORGBOTTOM
 10
0.0
 20
0.0
 30
0.0
  9
$PUCSORGLEFT
 10
0.0
 20
0.0
 30
0.0
  9
$PUCSORGRIGHT
 10
0.0
 20
0.0
 30
0.0
  9
$PUCSORGFRONT
 10
0.0
 20
0.0
 30
0.0
  9
$PUCSORGBACK
 10
0.0
 20
0.0
 30
0.0
  9
$USERI1
 70
     0
  9
$USERI2
 70
     0
  9
$USERI3
 70
     0
  9
$USERI4
 70
     0
  9
$USERI5
 70
     0
  9
$USERR1
 40
0.0
  9
$USERR2
 40
0.0
  9
$USERR3
 40
0.0
  9
$USERR4
 40
0.0
  9
$USERR5
 40
0.0
  9
$WORLDVIEW
 70
     1
  9
$SHADEDGE
 70
     3
  9
$SHADEDIF
 70
    70
  9
$TILEMODE
 70
     1
  9
$MAXACTVP
 70
    64
  9
$PINSBASE
 10
0.0
 20
0.0
 30
0.0
  9
$PLIMCHECK
 70
     0
  9
$PEXTMIN
 10
1.0000000000E+20
 20
1.0000000000E+20
 30
1.0000000000E+20
  9
$PEXTMAX
 10
-1.0000000000E+20
 20
-1.0000000000E+20
 30
-1.0000000000E+20
  9
$PLIMMIN
 10
0.0
 20
0.0
  9
$PLIMMAX
 10
420.0
 20
297.0
  9
$UNITMODE
 70
     0
  9
$VISRETAIN
 70
     1
  9
$PLINEGEN
 70
     0
  9
$PSLTSCALE
 70
     1
  9
$TREEDEPTH
 70
  3020
  9
$CMLSTYLE
  2
Standard
  9
$CMLJUST
 70
     0
  9
$CMLSCALE
 40
20.0
  9
$PROXYGRAPHICS
 70
     1
  9
$MEASUREMENT
 70
     1
  9
$CELWEIGHT
370
    -1
  9
$ENDCAPS
280
     0
  9
$JOINSTYLE
280
     0
  9
$LWDISPLAY
290
     1
  9
$INSUNITS
 70
     4
  9
$HYPERLINKBASE
  1

  9
$STYLESHEET
  1

  9
$XEDIT
290
     1
  9
$CEPSNTYPE
380
     0
  9
$PSTYLEMODE
290
     1
  9
$FINGERPRINTGUID
  2
{9bc24523-2341-487c-816a-af5cf68d7e6a}
  9
$VERSIONGUID
  2
{FAEB1C32-E019-11D5-929B-00C0DF256EC4}
  9
$EXTNAMES
290
     1
  9
$PSVPSCALE
 40
0.0
  9
$OLESTARTUP
290
     0
  0
ENDSEC
  0
SECTION
  2
CLASSES
  0
CLASS
  1
ACDBDICTIONARYWDFLT
  2
AcDbDictionaryWithDefault
  3
ObjectDBX Classes
 90
        0
280
     0
281
     0
  0
CLASS
  1
VISUALSTYLE
  2
AcDbVisualStyle
  3
ObjectDBX Classes
 90
     4095
280
     0
281
     0
  0
CLASS
  1
MATERIAL
  2
AcDbMaterial
  3
ObjectDBX Classes
 90
     1153
280
     0
281
     0
  0
CLASS
  1
SCALE
  2
AcDbScale
  3
ObjectDBX Classes
 90
     1153
280
     0
281
     0
  0
CLASS
  1
TABLESTYLE
  2
AcDbTableStyle
  3
ObjectDBX Classes
 90
     4095
280
     0
281
     0
  0
CLASS
  1
MLEADERSTYLE
  2
AcDbMLeaderStyle
  3
ACDB_MLEADERSTYLE_CLASS
 90
     4095
280
     0
281
     0
  0
CLASS
  1
SUN
  2
AcDbSun
  3
SCENEOE
 90
     1153
280
     0
281
     0
  0
CLASS
  1
ACDBPLACEHOLDER
  2
AcDbPlaceHolder
  3
ObjectDBX Classes
 90
        0
280
     0
281
     0
  0
CLASS
  1
LAYOUT
  2
AcDbLayout
  3
ObjectDBX Classes
 90
        0
280
     0
281
     0
  0
ENDSEC
  0
SECTION
  2
TABLES
  0
TABLE
  2
VPORT
  5
8
330
0
100
AcDbSymbolTable
 70
     1
  0
VPORT
  5
29
330
8
100
AcDbSymbolTableRecord
100
AcDbViewportTableRecord
  2
*Active
 70
     0
 10
0.0
 20
0.0
 11
1.0
 21
1.0
 12
139.7
 22
107.95
 13
0.0
 23
0.0
 14
10.0
 24
10.0
 15
10.0
 25
10.0
 16
0.0
 26
0.0
 36
1.0
 17
0.0
 27
0.0
 37
0.0
 40
215.9
 41
1.2941176471
 42
50.0
 43
0.0
 44
0.0
 50
0.0
 51
0.0
 71
     0
 72
  2000
 73
     1
 74
     3
 75
     0
 76
     0
 77
     0
 78
     0
281
     0
 65
     1
110
0.0
120
0.0
130
0.0
111
1.0
121
0.0
131
0.0
112
0.0
122
1.0
132
0.0
 79
     0
146
0.0
  0
ENDTAB
  0
TABLE
  2
LTYPE
  5
5
330
0
100
AcDbSymbolTable
 70
     6
  0
LTYPE
  5
14
330
5
100
AcDbSymbolTableRecord
100
AcDbLinetypeTableRecord
  2
ByBlock
 70
     0
  3

 72
    65
 73
     0
 40
0.0
  0
LTYPE
  5
15
330
5
100
AcDbSymbolTableRecord
100
AcDbLinetypeTableRecord
  2
ByLayer
 70
     0
  3

 72
    65
 73
     0
 40
0.0
  0
LTYPE
  5
16
330
5
100
AcDbSymbolTableRecord
100
AcDbLinetypeTableRecord
  2
Continuous
 70
     0
  3
Solid line
 72
    65
 73
     0
 40
0.0
  0
LTYPE
  5
6E
330
5
100
AcDbSymbolTableRecord
100
AcDbLinetypeTableRecord
  2
HIDDEN
 70
     0
  3
Hidden __ __ __ __ __ __ __ __ __ __ __ __ __ __
 72
    65
 73
     2
 40
1.905
 49
1.27
 74
     0
 49
-0.635
 74
     0
  0
LTYPE
  5
6F
330
5
100
AcDbSymbolTableRecord
100
AcDbLinetypeTableRecord
  2
PHANTOM
 70
     0
  3
Phantom ______  __  __  ______  __  __  ______
 72
    65
 73
     6
 40
12.7
 49
6.35
 74
     0
 49
-1.27
 74
     0
 49
1.27
 74
     0
 49
-1.27
 74
     0
 49
1.27
 74
     0
 49
-1.27
 74
     0
  0
LTYPE
  5
70
330
5
100
AcDbSymbolTableRecord
100
AcDbLinetypeTableRecord
  2
CENTER
 70
     0
  3
Center ____ _ ____ _ ____ _ ____ _ ____ _ ____
 72
    65
 73
     4
 40
10.16
 49
6.35
 74
     0
 49
-1.27
 74
     0
 49
1.27
 74
     0
 49
-1.27
 74
     0
  0
LTYPE
  5
71
330
5
100
AcDbSymbolTableRecord
100
AcDbLinetypeTableRecord
  2
CENTERX2
 70
     0
  3
Center (2x) ________  __  ________  __  _____
 72
    65
 73
     4
 40
20.32
 49
12.7
 74
     0
 49
-2.54
 74
     0
 49
2.54
 74
     0
 49
-2.54
 74
     0
  0
LTYPE
  5
72
330
5
100
AcDbSymbolTableRecord
100
AcDbLinetypeTableRecord
  2
DOT2
 70
     0
  3
Dot (.5x) ........................................
 72
    65
 73
     2
 40
0.635
 49
0.0
 74
     0
 49
-0.635
 74
     0
  0
ENDTAB
  0
TABLE
  2
LAYER
  5
2
330
0
100
AcDbSymbolTable
 70
    17
  0
LAYER
  5
10
330
2
100
AcDbSymbolTableRecord
100
AcDbLayerTableRecord
  2
0
 70
     0
 62
     7
  6
Continuous
370
    -3
390
F
  0
LAYER
  5
73
330
2
100
AcDbSymbolTableRecord
100
AcDbLayerTableRecord
  2
FORMAT
 70
     0
 62
     7
  6
Continuous
370
    -3
390
F
  0
LAYER
  5
74
330
2
100
AcDbSymbolTableRecord
100
AcDbLayerTableRecord
  2
YARDIMCI_GEOMETRI
 70
     0
 62
    -6
  6
Continuous
290
     0
370
    -3
390
F
  0
LAYER
  5
75
330
2
100
AcDbSymbolTableRecord
100
AcDbLayerTableRecord
  2
SAYFA_CERCEVESI
 70
     0
 62
     7
  6
Continuous
370
    25
390
F
  0
LAYER
  5
76
330
2
100
AcDbSymbolTableRecord
100
AcDbLayerTableRecord
  2
ANTET
 70
     0
 62
     7
  6
Continuous
370
    -3
390
F
  0
LAYER
  5
77
330
2
100
AcDbSymbolTableRecord
100
AcDbLayerTableRecord
  2
OLCU
 70
     0
 62
   150
  6
Continuous
370
    -3
390
F
  0
LAYER
  5
78
330
2
100
AcDbSymbolTableRecord
100
AcDbLayerTableRecord
  2
METIN
 70
     0
 62
    96
  6
Continuous
370
    -3
390
F
  0
LAYER
  5
79
330
2
100
AcDbSymbolTableRecord
100
AcDbLayerTableRecord
  2
BALON
 70
     0
 62
     5
  6
Continuous
370
    -3
390
F
  0
LAYER
  5
7A
330
2
100
AcDbSymbolTableRecord
100
AcDbLayerTableRecord
  2
VURGU
 70
     0
 62
     7
  6
Continuous
370
    -3
390
F
  0
LAYER
  5
7B
330
2
100
AcDbSymbolTableRecord
100
AcDbLayerTableRecord
  2
SILIK
 70
     0
 62
     7
  6
Continuous
370
    -3
390
F
  0
LAYER
  5
7C
330
2
100
AcDbSymbolTableRecord
100
AcDbLayerTableRecord
  2
MODEL
 70
     0
 62
     7
  6
Continuous
370
    -3
390
F
  0
LAYER
  5
7D
330
2
100
AcDbSymbolTableRecord
100
AcDbLayerTableRecord
  2
DETAYLANDıRMA
 70
     0
 62
   190
  6
Continuous
370
    -3
390
F
  0
LAYER
  5
7E
330
2
100
AcDbSymbolTableRecord
100
AcDbLayerTableRecord
  2
TOLERANS
 70
     0
 62
   230
  6
Continuous
370
    -3
390
F
  0
LAYER
  5
7F
330
2
100
AcDbSymbolTableRecord
100
AcDbLayerTableRecord
  2
MERKEZ_CIZGILERI
 70
     0
 62
    30
  6
Continuous
370
    -3
390
F
  0
LAYER
  5
80
330
2
100
AcDbSymbolTableRecord
100
AcDbLayerTableRecord
  2
KESIT-DETAY_CIZGILERI
 70
     0
 62
     7
  6
Continuous
370
    -3
390
F
  0
LAYER
  5
81
330
2
100
AcDbSymbolTableRecord
100
AcDbLayerTableRecord
  2
\U+041E\U+0421\U+0415\U+0412\U+042B\U+0415
 70
     0
 62
     7
  6
Continuous
370
    -3
390
F
  0
LAYER
  5
82
330
2
100
AcDbSymbolTableRecord
100
AcDbLayerTableRecord
  2
\U+0412\U+041E\U+0414\U+042F\U+041D\U+042B\U+0415_\U+0417\U+041D\U+0410\U+041A\U+0418
 70
     0
 62
    11
  6
Continuous
370
    -3
390
F
  0
ENDTAB
  0
TABLE
  2
STYLE
  5
3
330
0
100
AcDbSymbolTable
 70
     1
  0
STYLE
  5
11
330
3
100
AcDbSymbolTableRecord
100
AcDbTextStyleTableRecord
  2
Standard
 70
     0
 40
0.0
 41
1.0
 50
0.0
 71
     0
 42
3.5
  3
txt
  4

  0
ENDTAB
  0
TABLE
  2
VIEW
  5
6
330
0
100
AcDbSymbolTable
 70
     0
  0
ENDTAB
  0
TABLE
  2
UCS
  5
7
330
0
100
AcDbSymbolTable
 70
     0
  0
ENDTAB
  0
TABLE
  2
APPID
  5
9
330
0
100
AcDbSymbolTable
 70
     1
  0
APPID
  5
12
330
9
100
AcDbSymbolTableRecord
100
AcDbRegAppTableRecord
  2
ACAD
 70
     0
  0
ENDTAB
  0
TABLE
  2
DIMSTYLE
  5
A
330
0
100
AcDbSymbolTable
 70
     1
100
AcDbDimStyleTable
  0
DIMSTYLE
105
27
330
A
100
AcDbSymbolTableRecord
100
AcDbDimStyleTableRecord
  2
ISO-25
 70
     0
 41
2.5
 42
0.625
 43
3.75
 44
1.25
 73
     0
 74
     0
 77
     1
 78
     8
140
2.5
141
2.5
143
0.0393700787
147
0.625
171
     3
172
     1
178
     0
271
     2
272
     2
274
     3
278
    44
283
     0
284
     8
340
11
  0
ENDTAB
  0
TABLE
  2
BLOCK_RECORD
  5
1
330
0
100
AcDbSymbolTable
 70
     5
  0
BLOCK_RECORD
  5
1F
330
1
100
AcDbSymbolTableRecord
100
AcDbBlockTableRecord
  2
*Model_Space
340
22
  0
BLOCK_RECORD
  5
1B
330
1
100
AcDbSymbolTableRecord
100
AcDbBlockTableRecord
  2
*Paper_Space
340
1E
  0
BLOCK_RECORD
  5
23
330
1
100
AcDbSymbolTableRecord
100
AcDbBlockTableRecord
  2
*Paper_Space0
340
26
  0
BLOCK_RECORD
  5
C6
330
1
100
AcDbSymbolTableRecord
100
AcDbBlockTableRecord
  2
SW_CENTERMARKSYMBOL_0
340
0
102
{BLKREFS
331
D1
102
}
  0
BLOCK_RECORD
  5
D2
330
1
100
AcDbSymbolTableRecord
100
AcDbBlockTableRecord
  2
SW_CENTERMARKSYMBOL_1
340
0
102
{BLKREFS
331
DD
102
}
  0
BLOCK_RECORD
  5
DE
330
1
100
AcDbSymbolTableRecord
100
AcDbBlockTableRecord
  2
SW_CENTERMARKSYMBOL_2
340
0
102
{BLKREFS
331
E9
102
}
  0
BLOCK_RECORD
  5
165
330
1
100
AcDbSymbolTableRecord
100
AcDbBlockTableRecord
  2
SW_CENTERMARKSYMBOL_3
340
0
102
{BLKREFS
331
170
102
}
  0
ENDTAB
  0
ENDSEC
  0
SECTION
  2
BLOCKS
  0
BLOCK
  5
20
330
1F
100
AcDbEntity
  8
0
100
AcDbBlockBegin
  2
*Model_Space
 70
     0
 10
0.0
 20
0.0
 30
0.0
  3
*Model_Space
  1

  0
ENDBLK
  5
21
330
1F
100
AcDbEntity
  8
0
100
AcDbBlockEnd
  0
BLOCK
  5
1C
330
1B
100
AcDbEntity
 67
     1
  8
0
100
AcDbBlockBegin
  2
*Paper_Space
 70
     0
 10
0.0
 20
0.0
 30
0.0
  3
*Paper_Space
  1

  0
ENDBLK
  5
1D
330
1B
100
AcDbEntity
 67
     1
  8
0
100
AcDbBlockEnd
  0
BLOCK
  5
24
330
23
100
AcDbEntity
  8
0
100
AcDbBlockBegin
  2
*Paper_Space0
 70
     0
 10
0.0
 20
0.0
 30
0.0
  3
*Paper_Space0
  1

  0
ENDBLK
  5
25
330
23
100
AcDbEntity
  8
0
100
AcDbBlockEnd
  0
BLOCK
  5
C7
330
C6
100
AcDbEntity
  8
0
100
AcDbBlockBegin
  2
SW_CENTERMARKSYMBOL_0
 70
     0
 10
0.0
 20
0.0
 30
0.0
  3
SW_CENTERMARKSYMBOL_0
  1

  0
LINE
  5
C9
330
C6
100
AcDbEntity
  8
FORMAT
 62
     0
100
AcDbLine
 10
0.0
 20
0.0
 30
0.0
 11
0.0
 21
2.5
 31
0.0
  0
LINE
  5
CA
330
C6
100
AcDbEntity
  8
FORMAT
 62
     0
100
AcDbLine
 10
0.0
 20
0.0
 30
0.0
 11
-2.5
 21
0.0
 31
0.0
  0
LINE
  5
CB
330
C6
100
AcDbEntity
  8
FORMAT
 62
     0
100
AcDbLine
 10
0.0
 20
0.0
 30
0.0
 11
0.0
 21
-2.5
 31
0.0
  0
LINE
  5
CC
330
C6
100
AcDbEntity
  8
FORMAT
 62
     0
100
AcDbLine
 10
0.0
 20
0.0
 30
0.0
 11
2.5
 21
0.0
 31
0.0
  0
LINE
  5
CD
330
C6
100
AcDbEntity
  8
FORMAT
 62
     0
100
AcDbLine
 10
0.0
 20
5.0
 30
0.0
 11
0.0
 21
26.0
 31
0.0
  0
LINE
  5
CE
330
C6
100
AcDbEntity
  8
FORMAT
 62
     0
100
AcDbLine
 10
-5.0
 20
0.0
 30
0.0
 11
-26.0
 21
0.0
 31
0.0
  0
LINE
  5
CF
330
C6
100
AcDbEntity
  8
FORMAT
 62
     0
100
AcDbLine
 10
0.0
 20
-5.0
 30
0.0
 11
0.0
 21
-26.0
 31
0.0
  0
LINE
  5
D0
330
C6
100
AcDbEntity
  8
FORMAT
 62
     0
100
AcDbLine
 10
5.0
 20
0.0
 30
0.0
 11
26.0
 21
0.0
 31
0.0
  0
ENDBLK
  5
C8
330
C6
100
AcDbEntity
  8
0
100
AcDbBlockEnd
  0
BLOCK
  5
D3
330
D2
100
AcDbEntity
  8
0
100
AcDbBlockBegin
  2
SW_CENTERMARKSYMBOL_1
 70
     0
 10
0.0
 20
0.0
 30
0.0
  3
SW_CENTERMARKSYMBOL_1
  1

  0
LINE
  5
D5
330
D2
100
AcDbEntity
  8
FORMAT
 62
     0
100
AcDbLine
 10
0.0
 20
0.0
 30
0.0
 11
0.0
 21
2.5
 31
0.0
  0
LINE
  5
D6
330
D2
100
AcDbEntity
  8
FORMAT
 62
     0
100
AcDbLine
 10
0.0
 20
0.0
 30
0.0
 11
-2.5
 21
0.0
 31
0.0
  0
LINE
  5
D7
330
D2
100
AcDbEntity
  8
FORMAT
 62
     0
100
AcDbLine
 10
0.0
 20
0.0
 30
0.0
 11
0.0
 21
-2.5
 31
0.0
  0
LINE
  5
D8
330
D2
100
AcDbEntity
  8
FORMAT
 62
     0
100
AcDbLine
 10
0.0
 20
0.0
 30
0.0
 11
2.5
 21
0.0
 31
0.0
  0
LINE
  5
D9
330
D2
100
AcDbEntity
  8
FORMAT
 62
     0
100
AcDbLine
 10
0.0
 20
5.0
 30
0.0
 11
0.0
 21
9.5
 31
0.0
  0
LINE
  5
DA
330
D2
100
AcDbEntity
  8
FORMAT
 62
     0
100
AcDbLine
 10
-5.0
 20
0.0
 30
0.0
 11
-9.5
 21
0.0
 31
0.0
  0
LINE
  5
DB
330
D2
100
AcDbEntity
  8
FORMAT
 62
     0
100
AcDbLine
 10
0.0
 20
-5.0
 30
0.0
 11
0.0
 21
-9.5
 31
0.0
  0
LINE
  5
DC
330
D2
100
AcDbEntity
  8
FORMAT
 62
     0
100
AcDbLine
 10
5.0
 20
0.0
 30
0.0
 11
9.5
 21
0.0
 31
0.0
  0
ENDBLK
  5
D4
330
D2
100
AcDbEntity
  8
0
100
AcDbBlockEnd
  0
BLOCK
  5
DF
330
DE
100
AcDbEntity
  8
0
100
AcDbBlockBegin
  2
SW_CENTERMARKSYMBOL_2
 70
     0
 10
0.0
 20
0.0
 30
0.0
  3
SW_CENTERMARKSYMBOL_2
  1

  0
LINE
  5
E1
330
DE
100
AcDbEntity
  8
FORMAT
 62
     0
100
AcDbLine
 10
0.0
 20
0.0
 30
0.0
 11
0.0
 21
2.5
 31
0.0
  0
LINE
  5
E2
330
DE
100
AcDbEntity
  8
FORMAT
 62
     0
100
AcDbLine
 10
0.0
 20
0.0
 30
0.0
 11
-2.5
 21
0.0
 31
0.0
  0
LINE
  5
E3
330
DE
100
AcDbEntity
  8
FORMAT
 62
     0
100
AcDbLine
 10
0.0
 20
0.0
 30
0.0
 11
0.0
 21
-2.5
 31
0.0
  0
LINE
  5
E4
330
DE
100
AcDbEntity
  8
FORMAT
 62
     0
100
AcDbLine
 10
0.0
 20
0.0
 30
0.0
 11
2.5
 21
0.0
 31
0.0
  0
LINE
  5
E5
330
DE
100
AcDbEntity
  8
FORMAT
 62
     0
100
AcDbLine
 10
0.0
 20
5.0
 30
0.0
 11
0.0
 21
9.5
 31
0.0
  0
LINE
  5
E6
330
DE
100
AcDbEntity
  8
FORMAT
 62
     0
100
AcDbLine
 10
-5.0
 20
0.0
 30
0.0
 11
-9.5
 21
0.0
 31
0.0
  0
LINE
  5
E7
330
DE
100
AcDbEntity
  8
FORMAT
 62
     0
100
AcDbLine
 10
0.0
 20
-5.0
 30
0.0
 11
0.0
 21
-9.5
 31
0.0
  0
LINE
  5
E8
330
DE
100
AcDbEntity
  8
FORMAT
 62
     0
100
AcDbLine
 10
5.0
 20
0.0
 30
0.0
 11
9.5
 21
0.0
 31
0.0
  0
ENDBLK
  5
E0
330
DE
100
AcDbEntity
  8
0
100
AcDbBlockEnd
  0
BLOCK
  5
166
330
165
100
AcDbEntity
  8
0
100
AcDbBlockBegin
  2
SW_CENTERMARKSYMBOL_3
 70
     0
 10
0.0
 20
0.0
 30
0.0
  3
SW_CENTERMARKSYMBOL_3
  1

  0
LINE
  5
168
330
165
100
AcDbEntity
  8
FORMAT
 62
     0
100
AcDbLine
 10
0.0
 20
0.0
 30
0.0
 11
0.0
 21
2.5
 31
0.0
  0
LINE
  5
169
330
165
100
AcDbEntity
  8
FORMAT
 62
     0
100
AcDbLine
 10
0.0
 20
0.0
 30
0.0
 11
-2.5
 21
0.0
 31
0.0
  0
LINE
  5
16A
330
165
100
AcDbEntity
  8
FORMAT
 62
     0
100
AcDbLine
 10
0.0
 20
0.0
 30
0.0
 11
0.0
 21
-2.5
 31
0.0
  0
LINE
  5
16B
330
165
100
AcDbEntity
  8
FORMAT
 62
     0
100
AcDbLine
 10
0.0
 20
0.0
 30
0.0
 11
2.5
 21
0.0
 31
0.0
  0
LINE
  5
16C
330
165
100
AcDbEntity
  8
FORMAT
 62
     0
100
AcDbLine
 10
0.0
 20
5.0
 30
0.0
 11
0.0
 21
15.0
 31
0.0
  0
LINE
  5
16D
330
165
100
AcDbEntity
  8
FORMAT
 62
     0
100
AcDbLine
 10
-5.0
 20
0.0
 30
0.0
 11
-15.0
 21
0.0
 31
0.0
  0
LINE
  5
16E
330
165
100
AcDbEntity
  8
FORMAT
 62
     0
100
AcDbLine
 10
0.0
 20
-5.0
 30
0.0
 11
0.0
 21
-15.0
 31
0.0
  0
LINE
  5
16F
330
165
100
AcDbEntity
  8
FORMAT
 62
     0
100
AcDbLine
 10
5.0
 20
0.0
 30
0.0
 11
15.0
 21
0.0
 31
0.0
  0
ENDBLK
  5
167
330
165
100
AcDbEntity
  8
0
100
AcDbBlockEnd
  0
ENDSEC
  0
SECTION
  2
ENTITIES
  0
LINE
  5
83
330
1F
100
AcDbEntity
  8
0
  6
Continuous
 62
     7
370
    25
100
AcDbLine
 10
166.9123260526
 20
15.8096755577
 30
0.0
 11
196.9123260526
 21
15.8096755577
 31
0.0
  0
LINE
  5
84
330
1F
100
AcDbEntity
  8
0
  6
Continuous
 62
     7
370
    25
100
AcDbLine
 10
76.9123260526
 20
15.8096755577
 30
0.0
 11
106.9123260526
 21
15.8096755577
 31
0.0
  0
LINE
  5
85
330
1F
100
AcDbEntity
  8
0
  6
Continuous
 62
     7
370
    25
100
AcDbLine
 10
77.435958186
 20
92.8096755577
 30
0.0
 11
76.9123260526
 21
92.8096755577
 31
0.0
  0
LINE
  5
86
330
1F
100
AcDbEntity
  8
0
  6
Continuous
 62
     7
370
    25
100
AcDbLine
 10
113.4331396801
 20
92.8096755577
 30
0.0
 11
91.4044200164
 21
92.8096755577
 31
0.0
  0
LINE
  5
87
330
1F
100
AcDbEntity
  8
0
  6
Continuous
 62
     7
370
    25
100
AcDbLine
 10
182.435958186
 20
92.8096755577
 30
0.0
 11
160.3775329656
 21
92.8096755577
 31
0.0
  0
LINE
  5
88
330
1F
100
AcDbEntity
  8
0
  6
Continuous
 62
     7
370
    25
100
AcDbLine
 10
196.9123260526
 20
92.8096755577
 30
0.0
 11
196.4044200164
 21
92.8096755577
 31
0.0
  0
LINE
  5
89
330
1F
100
AcDbEntity
  8
0
  6
Continuous
 62
     7
370
    25
100
AcDbLine
 10
160.4123260526
 20
169.4096755577
 30
0.0
 11
156.9123260526
 21
172.9096755577
 31
0.0
  0
LINE
  5
8A
330
1F
100
AcDbEntity
  8
0
  6
Continuous
 62
     7
370
    25
100
AcDbLine
 10
116.9123260526
 20
172.9096755577
 30
0.0
 11
113.4123260526
 21
169.4096755577
 31
0.0
  0
LINE
  5
8B
330
1F
100
AcDbEntity
  8
0
  6
Continuous
 62
     7
370
    25
100
AcDbLine
 10
160.4123260526
 20
92.7885136296
 30
0.0
 11
160.4123260526
 21
169.4096755577
 31
0.0
  0
LINE
  5
8C
330
1F
100
AcDbEntity
  8
0
  6
Continuous
 62
     7
370
    25
100
AcDbLine
 10
113.4123260526
 20
169.4096755577
 30
0.0
 11
113.4123260526
 21
92.7969762317
 31
0.0
  0
LINE
  5
8D
330
1F
100
AcDbEntity
  8
0
  6
Continuous
 62
     7
370
    25
100
AcDbLine
 10
156.9123260526
 20
172.9096755577
 30
0.0
 11
156.9123260526
 21
216.9096755577
 31
0.0
  0
LINE
  5
8E
330
1F
100
AcDbEntity
  8
0
  6
Continuous
 62
     7
370
    25
100
AcDbLine
 10
116.9123260526
 20
216.9096755577
 30
0.0
 11
116.9123260526
 21
172.9096755577
 31
0.0
  0
LINE
  5
8F
330
1F
100
AcDbEntity
  8
0
  6
Continuous
 62
     7
370
    25
100
AcDbLine
 10
196.4123260526
 20
92.8082512973
 30
0.0
 11
196.4123260526
 21
107.8096755577
 31
0.0
  0
LINE
  5
90
330
1F
100
AcDbEntity
  8
0
  6
Continuous
 62
     7
370
    25
100
AcDbLine
 10
182.4123260526
 20
107.8096755577
 30
0.0
 11
182.4123260526
 21
92.8053901335
 31
0.0
  0
LINE
  5
91
330
1F
100
AcDbEntity
  8
0
  6
Continuous
 62
     7
370
    25
100
AcDbLine
 10
91.4123260526
 20
92.8082512973
 30
0.0
 11
91.4123260526
 21
107.8096755577
 31
0.0
  0
LINE
  5
92
330
1F
100
AcDbEntity
  8
0
  6
Continuous
 62
     7
370
    25
100
AcDbLine
 10
77.4123260526
 20
107.8096755577
 30
0.0
 11
77.4123260526
 21
92.8053901335
 31
0.0
  0
LINE
  5
93
330
1F
100
AcDbEntity
  8
0
  6
Continuous
 62
     7
370
    25
100
AcDbLine
 10
156.4123260526
 20
216.9096755577
 30
0.0
 11
156.4123260526
 21
226.9096755577
 31
0.0
  0
LINE
  5
94
330
1F
100
AcDbEntity
  8
0
  6
Continuous
 62
     7
370
    25
100
AcDbLine
 10
117.4123260526
 20
226.9096755577
 30
0.0
 11
117.4123260526
 21
216.9096755577
 31
0.0
  0
LINE
  5
95
330
1F
100
AcDbEntity
  8
0
  6
Continuous
 62
     7
370
    25
100
AcDbLine
 10
196.9123260526
 20
52.3096755577
 30
0.0
 11
196.9123260526
 21
45.3096755577
 31
0.0
  0
LINE
  5
96
330
1F
100
AcDbEntity
  8
0
  6
Continuous
 62
     7
370
    25
100
AcDbLine
 10
196.9123260526
 20
45.3096755577
 30
0.0
 11
76.9123260526
 21
45.3096755577
 31
0.0
  0
LINE
  5
97
330
1F
100
AcDbEntity
  8
0
  6
Continuous
 62
     7
370
    25
100
AcDbLine
 10
76.9123260526
 20
52.3096755577
 30
0.0
 11
76.9123260526
 21
45.3096755577
 31
0.0
  0
LINE
  5
98
330
1F
100
AcDbEntity
  8
0
  6
Continuous
 62
     7
370
    25
100
AcDbLine
 10
196.9123260526
 20
52.3096755577
 30
0.0
 11
76.9123260526
 21
52.3096755577
 31
0.0
  0
LINE
  5
99
330
1F
100
AcDbEntity
  8
0
  6
Continuous
 62
     7
370
    25
100
AcDbLine
 10
196.9123260526
 20
63.3096755577
 30
0.0
 11
196.9123260526
 21
56.3096755577
 31
0.0
  0
LINE
  5
9A
330
1F
100
AcDbEntity
  8
0
  6
Continuous
 62
     7
370
    25
100
AcDbLine
 10
196.9123260526
 20
56.3096755577
 30
0.0
 11
76.9123260526
 21
56.3096755577
 31
0.0
  0
LINE
  5
9B
330
1F
100
AcDbEntity
  8
0
  6
Continuous
 62
     7
370
    25
100
AcDbLine
 10
76.9123260526
 20
63.3096755577
 30
0.0
 11
76.9123260526
 21
56.3096755577
 31
0.0
  0
LINE
  5
9C
330
1F
100
AcDbEntity
  8
0
  6
Continuous
 62
     7
370
    25
100
AcDbLine
 10
196.9123260526
 20
63.3096755577
 30
0.0
 11
76.9123260526
 21
63.3096755577
 31
0.0
  0
SPLINE
  5
9D
330
1F
100
AcDbEntity
  8
0
  6
Continuous
 62
     7
370
    25
100
AcDbSpline
210
0.0
220
0.0
230
1.0
 70
     8
 71
     3
 72
    25
 73
    21
 74
     0
 42
0.00000001
 43
0.00000001
 40
0.0
 40
0.0
 40
0.0
 40
0.0
 40
0.0343490633531454
 40
0.086414281038279
 40
0.1399751051201001
 40
0.2458061357517494
 40
0.2989068821842212
 40
0.3535413243017764
 40
0.4066960678667843
 40
0.4614353803117583
 40
0.5138410045113192
 40
0.5677909784199301
 40
0.6729623046466567
 40
0.7255660391039692
 40
0.7796577359655316
 40
0.8328953788447174
 40
0.8876906306151963
 40
0.9406417814322446
 40
0.9951728954564749
 40
1.0
 40
1.0
 40
1.0
 40
1.0
 10
182.4359581860142
 20
92.8053879792821
 30
0.0
 10
182.4344971310043
 20
92.80564729088071
 30
0.0
 10
182.4308214552822
 20
92.80629965875254
 30
0.0
 10
182.6464862378512
 20
92.76737789916801
 30
0.0
 10
183.1791774904482
 20
92.67554731850908
 30
0.0
 10
184.0868932851029
 20
92.53375431273261
 30
0.0
 10
185.2685675404661
 20
92.39011649520707
 30
0.0
 10
186.2784797677193
 20
92.29250171242306
 30
0.0
 10
187.3892815412289
 20
92.21627800500711
 30
0.0
 10
188.5444149453107
 20
92.17180388479862
 30
0.0
 10
189.7303512546697
 20
92.16325869943252
 30
0.0
 10
191.2741486321163
 20
92.19997631342655
 30
0.0
 10
192.7448758696457
 20
92.30452767339156
 30
0.0
 10
194.0014233070085
 20
92.4417149521384
 30
0.0
 10
194.8243727188699
 20
92.55043320500175
 30
0.0
 10
195.5031879005741
 20
92.65329175347584
 30
0.0
 10
196.0106797963428
 20
92.73802460621594
 30
0.0
 10
196.3130934518865
 20
92.79156101482968
 30
0.0
 10
196.4387870065752
 20
92.8144625242398
 30
0.0
 10
196.4070046112483
 20
92.80871269032794
 30
0.0
 10
196.4044200164174
 20
92.80824510470845
 30
0.0
  0
SPLINE
  5
9E
330
1F
100
AcDbEntity
  8
0
  6
Continuous
 62
     7
370
    25
100
AcDbSpline
210
0.0
220
0.0
230
1.0
 70
     8
 71
     3
 72
    32
 73
    28
 74
     0
 42
0.00000001
 43
0.00000001
 40
0.0
 40
0.0
 40
0.0
 40
0.0
 40
0.0103252498235855
 40
0.0552120484541539
 40
0.1013990589109633
 40
0.1466233684525203
 40
0.1928994012123814
 40
0.2436680145594808
 40
0.295610651602484
 40
0.3522833474962813
 40
0.3814488707299533
 40
0.4108927054987181
 40
0.4531977358257642
 40
0.4966849967265149
 40
0.5390158880959645
 40
0.5826075140514273
 40
0.624842446206263
 40
0.6679610631260104
 40
0.7180028292060521
 40
0.7691553704453361
 40
0.8260201118482556
 40
0.8552890581451377
 40
0.8848278687733458
 40
0.9376208561138604
 40
0.9649398903042314
 40
0.9925475217424057
 40
1.0
 40
1.0
 40
1.0
 40
1.0
 10
113.4331396800542
 20
92.79697544957676
 30
0.0
 10
113.428217973991
 20
92.79997986394234
 30
0.0
 10
113.4019002113916
 20
92.81604532234402
 30
0.0
 10
113.7215203609739
 20
92.62076108835224
 30
0.0
 10
114.5603052116763
 20
92.1166154837862
 30
0.0
 10
115.8862278763377
 20
91.34449800715994
 30
0.0
 10
117.672838633323
 20
90.35403316408954
 30
0.0
 10
119.962770530227
 20
89.1754264214365
 30
0.0
 10
122.8294857438114
 20
87.86061840409765
 30
0.0
 10
125.6562757511251
 20
86.7790981792546
 30
0.0
 10
128.2198319504562
 20
86.0007387576531
 30
0.0
 10
130.5730034332162
 20
85.42376233208515
 30
0.0
 10
133.3921041814428
 20
84.95261816335783
 30
0.0
 10
136.6313765713509
 20
84.74807696666332
 30
0.0
 10
139.9107882401044
 20
84.89602837767332
 30
0.0
 10
143.0695169111553
 20
85.37154484172001
 30
0.0
 10
146.0811183179843
 20
86.11394871325045
 30
0.0
 10
149.0233879743157
 20
87.08495480389186
 30
0.0
 10
151.8717185948227
 20
88.2457511003479
 30
0.0
 10
154.6119524674854
 20
89.54591922362891
 30
0.0
 10
156.6038853930268
 20
90.60199571546917
 30
0.0
 10
157.9789986486268
 20
91.37171903078057
 30
0.0
 10
159.0895308651436
 20
92.01300124419465
 30
0.0
 10
159.8771445461574
 20
92.48456928276642
 30
0.0
 10
160.2776393227924
 20
92.72745312992004
 30
0.0
 10
160.4434537328842
 20
92.82862987210792
 30
0.0
 10
160.3890889095497
 20
92.79551903602743
 30
0.0
 10
160.3775329655611
 20
92.78848090100384
 30
0.0
  0
SPLINE
  5
9F
330
1F
100
AcDbEntity
  8
0
  6
Continuous
 62
     7
370
    25
100
AcDbSpline
210
0.0
220
0.0
230
1.0
 70
     8
 71
     3
 72
    25
 73
    21
 74
     0
 42
0.00000001
 43
0.00000001
 40
0.0
 40
0.0
 40
0.0
 40
0.0
 40
0.0343490633531454
 40
0.086414281038279
 40
0.1399751051201001
 40
0.2458061357517494
 40
0.2989068821842212
 40
0.3535413243017764
 40
0.4066960678667843
 40
0.4614353803117583
 40
0.5138410045113192
 40
0.5677909784199301
 40
0.6729623046466567
 40
0.7255660391039692
 40
0.7796577359655316
 40
0.8328953788447174
 40
0.8876906306151963
 40
0.9406417814322446
 40
0.9951728954564749
 40
1.0
 40
1.0
 40
1.0
 40
1.0
 10
77.43595818601423
 20
92.8053879792821
 30
0.0
 10
77.43449713100426
 20
92.80564729088071
 30
0.0
 10
77.43082145528219
 20
92.80629965875254
 30
0.0
 10
77.64648623785119
 20
92.76737789916801
 30
0.0
 10
78.17917749044814
 20
92.67554731850908
 30
0.0
 10
79.08689328510293
 20
92.53375431273261
 30
0.0
 10
80.26856754046611
 20
92.39011649520707
 30
0.0
 10
81.27847976771935
 20
92.29250171242306
 30
0.0
 10
82.3892815412289
 20
92.21627800500711
 30
0.0
 10
83.54441494531076
 20
92.17180388479862
 30
0.0
 10
84.73035125466971
 20
92.16325869943252
 30
0.0
 10
86.27414863211624
 20
92.19997631342655
 30
0.0
 10
87.74487586964571
 20
92.30452767339156
 30
0.0
 10
89.00142330700855
 20
92.4417149521384
 30
0.0
 10
89.82437271886987
 20
92.55043320500175
 30
0.0
 10
90.50318790057418
 20
92.65329175347584
 30
0.0
 10
91.01067979634279
 20
92.73802460621594
 30
0.0
 10
91.31309345188663
 20
92.79156101482968
 30
0.0
 10
91.43878700657515
 20
92.8144625242398
 30
0.0
 10
91.40700461124837
 20
92.80871269032794
 30
0.0
 10
91.40442001641738
 20
92.80824510470845
 30
0.0
  0
LINE
  5
A0
330
1F
100
AcDbEntity
  8
0
  6
Continuous
 62
     7
370
    25
100
AcDbLine
 10
106.9123260526
 20
44.3096755577
 30
0.0
 11
166.9123260526
 21
44.3096755577
 31
0.0
  0
LINE
  5
A1
330
1F
100
AcDbEntity
  8
0
  6
Continuous
 62
     7
370
    25
100
AcDbLine
 10
106.9123260526
 20
15.8096755577
 30
0.0
 11
106.9123260526
 21
44.3096755577
 31
0.0
  0
LINE
  5
A2
330
1F
100
AcDbEntity
  8
0
  6
Continuous
 62
     7
370
    25
100
AcDbLine
 10
166.9123260526
 20
44.3096755577
 30
0.0
 11
166.9123260526
 21
15.8096755577
 31
0.0
  0
LINE
  5
A3
330
1F
100
AcDbEntity
  8
0
  6
Continuous
 62
     7
370
    25
100
AcDbLine
 10
76.9123260526
 20
45.3096755577
 30
0.0
 11
76.9123260526
 21
15.8096755577
 31
0.0
  0
LINE
  5
A4
330
1F
100
AcDbEntity
  8
0
  6
Continuous
 62
     7
370
    25
100
AcDbLine
 10
76.9123260526
 20
92.8096755577
 30
0.0
 11
76.9123260526
 21
63.3096755577
 31
0.0
  0
LINE
  5
A5
330
1F
100
AcDbEntity
  8
0
  6
Continuous
 62
     7
370
    25
100
AcDbLine
 10
196.9123260526
 20
45.3096755577
 30
0.0
 11
196.9123260526
 21
15.8096755577
 31
0.0
  0
LINE
  5
A6
330
1F
100
AcDbEntity
  8
0
  6
Continuous
 62
     7
370
    25
100
AcDbLine
 10
196.9123260526
 20
92.8096755577
 30
0.0
 11
196.9123260526
 21
63.3096755577
 31
0.0
  0
LINE
  5
A7
330
1F
100
AcDbEntity
  8
0
  6
Continuous
 62
     7
370
    25
100
AcDbLine
 10
76.9123260526
 20
56.3096755577
 30
0.0
 11
76.9123260526
 21
52.3096755577
 31
0.0
  0
LINE
  5
A8
330
1F
100
AcDbEntity
  8
0
  6
Continuous
 62
     7
370
    25
100
AcDbLine
 10
196.9123260526
 20
56.3096755577
 30
0.0
 11
196.9123260526
 21
52.3096755577
 31
0.0
  0
LINE
  5
A9
330
1F
100
AcDbEntity
  8
0
  6
Continuous
 62
     7
370
    25
100
AcDbLine
 10
156.9123260526
 20
172.9096755577
 30
0.0
 11
116.9123260526
 21
172.9096755577
 31
0.0
  0
LINE
  5
AA
330
1F
100
AcDbEntity
  8
0
  6
Continuous
 62
     7
370
    25
100
AcDbLine
 10
160.4123260526
 20
169.4096755577
 30
0.0
 11
113.4123260526
 21
169.4096755577
 31
0.0
  0
LINE
  5
AB
330
1F
100
AcDbEntity
  8
0
  6
Continuous
 62
     7
370
    25
100
AcDbLine
 10
156.9123260526
 20
216.9096755577
 30
0.0
 11
116.9123260526
 21
216.9096755577
 31
0.0
  0
LINE
  5
AC
330
1F
100
AcDbEntity
  8
0
  6
Continuous
 62
     7
370
    25
100
AcDbLine
 10
182.4123260526
 20
107.8096755577
 30
0.0
 11
196.4123260526
 21
107.8096755577
 31
0.0
  0
LINE
  5
AD
330
1F
100
AcDbEntity
  8
0
  6
Continuous
 62
     7
370
    25
100
AcDbLine
 10
91.4123260526
 20
107.8096755577
 30
0.0
 11
77.4123260526
 21
107.8096755577
 31
0.0
  0
LINE
  5
AE
330
1F
100
AcDbEntity
  8
0
  6
Continuous
 62
     7
370
    25
100
AcDbLine
 10
156.4123260526
 20
226.9096755577
 30
0.0
 11
117.4123260526
 21
226.9096755577
 31
0.0
  0
LINE
  5
AF
330
1F
100
AcDbEntity
  8
0
  6
Continuous
 62
     7
370
    25
100
AcDbLine
 10
120.9123260526
 20
-36.1277412153
 30
0.0
 11
120.9123260526
 21
-129.8820357969
 31
0.0
  0
LINE
  5
B0
330
1F
100
AcDbEntity
  8
0
  6
Continuous
 62
     7
370
    25
100
AcDbLine
 10
152.9123260526
 20
-129.889289777
 30
0.0
 11
152.9123260526
 21
-36.1277412153
 31
0.0
  0
LINE
  5
B1
330
1F
100
AcDbEntity
  8
0
  6
Continuous
 62
     7
370
    25
100
AcDbLine
 10
196.9123260526
 20
-108.6277412153
 30
0.0
 11
152.9123260526
 21
-108.6277412153
 31
0.0
  0
LINE
  5
B2
330
1F
100
AcDbEntity
  8
0
  6
Continuous
 62
     7
370
    25
100
AcDbLine
 10
120.9123260526
 20
-108.6277412153
 30
0.0
 11
76.9123260526
 21
-108.6277412153
 31
0.0
  0
CIRCLE
  5
B3
330
1F
100
AcDbEntity
  8
0
  6
Continuous
 62
     7
370
    25
100
AcDbCircle
 10
136.9123260526
 20
-147.1277412153
 30
0.0
 40
19.99999999999999
  0
CIRCLE
  5
B4
330
1F
100
AcDbEntity
  8
0
  6
Continuous
 62
     7
370
    25
100
AcDbCircle
 10
136.9123260526
 20
-147.1277412153
 30
0.0
 40
23.49999999999999
  0
LINE
  5
B5
330
1F
100
AcDbEntity
  8
0
  6
Continuous
 62
     7
370
    25
100
AcDbLine
 10
136.9123260526
 20
-36.1277412153
 30
0.0
 11
152.9123260526
 21
-36.1277412153
 31
0.0
  0
LINE
  5
B6
330
1F
100
AcDbEntity
  8
0
  6
Continuous
 62
     7
370
    25
100
AcDbLine
 10
120.9123260526
 20
-36.1277412153
 30
0.0
 11
136.9123260526
 21
-36.1277412153
 31
0.0
  0
CIRCLE
  5
B7
330
1F
100
AcDbEntity
  8
0
  6
Continuous
 62
     7
370
    25
100
AcDbCircle
 10
189.4123260526
 20
-147.1277412153
 30
0.0
 40
4.599999999999994
  0
CIRCLE
  5
B8
330
1F
100
AcDbEntity
  8
0
  6
Continuous
 62
     7
370
    25
100
AcDbCircle
 10
189.4123260526
 20
-147.1277412153
 30
0.0
 40
7.0
  0
CIRCLE
  5
B9
330
1F
100
AcDbEntity
  8
0
  6
Continuous
 62
     7
370
    25
100
AcDbCircle
 10
84.4123260526
 20
-147.1277412153
 30
0.0
 40
4.599999999999994
  0
CIRCLE
  5
BA
330
1F
100
AcDbEntity
  8
0
  6
Continuous
 62
     7
370
    25
100
AcDbCircle
 10
84.4123260526
 20
-147.1277412153
 30
0.0
 40
7.0
  0
CIRCLE
  5
BB
330
1F
100
AcDbEntity
  8
0
  6
Continuous
 62
     7
370
    25
100
AcDbCircle
 10
84.4123260526
 20
-147.1277412153
 30
0.0
 40
1.5
  0
CIRCLE
  5
BC
330
1F
100
AcDbEntity
  8
0
  6
Continuous
 62
     7
370
    25
100
AcDbCircle
 10
189.4123260526
 20
-147.1277412153
 30
0.0
 40
1.5
  0
CIRCLE
  5
BD
330
1F
100
AcDbEntity
  8
0
  6
Continuous
 62
     7
370
    25
100
AcDbCircle
 10
84.4123260526
 20
-147.1277412153
 30
0.0
 40
2.0
  0
CIRCLE
  5
BE
330
1F
100
AcDbEntity
  8
0
  6
Continuous
 62
     7
370
    25
100
AcDbCircle
 10
189.4123260526
 20
-147.1277412153
 30
0.0
 40
2.0
  0
LINE
  5
BF
330
1F
100
AcDbEntity
  8
0
  6
Continuous
 62
     7
370
    25
100
AcDbLine
 10
196.9123260526
 20
-108.6277412153
 30
0.0
 11
196.9123260526
 21
-184.5610151838
 31
0.0
  0
LINE
  5
C0
330
1F
100
AcDbEntity
  8
0
  6
Continuous
 62
     7
370
    25
100
AcDbLine
 10
196.9123260526
 20
-184.5610151838
 30
0.0
 11
76.9123260526
 21
-184.5610151838
 31
0.0
  0
LINE
  5
C1
330
1F
100
AcDbEntity
  8
0
  6
Continuous
 62
     7
370
    25
100
AcDbLine
 10
76.9123260526
 20
-108.6277412153
 30
0.0
 11
76.9123260526
 21
-184.5610151838
 31
0.0
  0
LINE
  5
C2
330
1F
100
AcDbEntity
  8
0
  6
Continuous
 62
     7
370
    25
100
AcDbLine
 10
196.9123260526
 20
-199.5610151838
 30
0.0
 11
76.9123260526
 21
-199.5610151838
 31
0.0
  0
LINE
  5
C3
330
1F
100
AcDbEntity
  8
0
  6
Continuous
 62
     7
370
    25
100
AcDbLine
 10
196.9123260526
 20
-184.5610151838
 30
0.0
 11
196.9123260526
 21
-199.5610151838
 31
0.0
  0
LINE
  5
C4
330
1F
100
AcDbEntity
  8
0
  6
Continuous
 62
     7
370
    25
100
AcDbLine
 10
76.9123260526
 20
-184.5610151838
 30
0.0
 11
76.9123260526
 21
-199.5610151838
 31
0.0
  0
CIRCLE
  5
C5
330
1F
100
AcDbEntity
  8
0
  6
Continuous
 62
     7
370
    25
100
AcDbCircle
 10
136.9123260526
 20
-147.1277412153
 30
0.0
 40
19.49999999999999
  0
INSERT
  5
D1
330
1F
100
AcDbEntity
  8
FORMAT
 62
     7
100
AcDbBlockReference
  2
SW_CENTERMARKSYMBOL_0
 10
136.9123260526
 20
-147.1277412153
 30
0.0
  0
INSERT
  5
DD
330
1F
100
AcDbEntity
  8
FORMAT
 62
     7
100
AcDbBlockReference
  2
SW_CENTERMARKSYMBOL_1
 10
84.4123260526
 20
-147.1277412153
 30
0.0
  0
INSERT
  5
E9
330
1F
100
AcDbEntity
  8
FORMAT
 62
     7
100
AcDbBlockReference
  2
SW_CENTERMARKSYMBOL_2
 10
189.4123260526
 20
-147.1277412153
 30
0.0
  0
LINE
  5
EA
330
1F
100
AcDbEntity
  8
0
  6
Continuous
 62
     7
370
    25
100
AcDbLine
 10
371.3484126949
 20
92.1713695354
 30
0.0
 11
371.3484126949
 21
107.8096755577
 31
0.0
  0
LINE
  5
EB
330
1F
100
AcDbEntity
  8
0
  6
Continuous
 62
     7
370
    25
100
AcDbLine
 10
357.3484126949
 20
107.8096755577
 30
0.0
 11
357.3484126949
 21
92.1679639501
 31
0.0
  0
LINE
  5
EC
330
1F
100
AcDbEntity
  8
0
  6
Continuous
 62
     7
370
    25
100
AcDbLine
 10
387.8484126949
 20
169.4096755577
 30
0.0
 11
384.3484126949
 21
172.9096755577
 31
0.0
  0
LINE
  5
ED
330
1F
100
AcDbEntity
  8
0
  6
Continuous
 62
     7
370
    25
100
AcDbLine
 10
344.3484126949
 20
172.9096755577
 30
0.0
 11
340.8484126949
 21
169.4096755577
 31
0.0
  0
LINE
  5
EE
330
1F
100
AcDbEntity
  8
0
  6
Continuous
 62
     7
370
    25
100
AcDbLine
 10
387.8484126949
 20
84.8176310855
 30
0.0
 11
387.8484126949
 21
169.4096755577
 31
0.0
  0
LINE
  5
EF
330
1F
100
AcDbEntity
  8
0
  6
Continuous
 62
     7
370
    25
100
AcDbLine
 10
340.8484126949
 20
86.3329309209
 30
0.0
 11
340.8484126949
 21
84.8055769217
 31
0.0
  0
LINE
  5
F0
330
1F
100
AcDbEntity
  8
0
  6
Continuous
 62
     7
370
    25
100
AcDbLine
 10
340.8484126949
 20
169.4096755577
 30
0.0
 11
340.8484126949
 21
118.3096755577
 31
0.0
  0
LINE
  5
F1
330
1F
100
AcDbEntity
  8
0
  6
Continuous
 62
     7
370
    25
100
AcDbLine
 10
384.3484126949
 20
172.9096755577
 30
0.0
 11
384.3484126949
 21
216.9096755577
 31
0.0
  0
LINE
  5
F2
330
1F
100
AcDbEntity
  8
0
  6
Continuous
 62
     7
370
    25
100
AcDbLine
 10
344.3484126949
 20
216.9096755577
 30
0.0
 11
344.3484126949
 21
172.9096755577
 31
0.0
  0
LINE
  5
F3
330
1F
100
AcDbEntity
  8
0
  6
Continuous
 62
     7
370
    25
100
AcDbLine
 10
253.3484126949
 20
86.3096755577
 30
0.0
 11
340.8641992803
 21
86.3096755577
 31
0.0
  0
LINE
  5
F4
330
1F
100
AcDbEntity
  8
0
  6
Continuous
 62
     7
370
    25
100
AcDbLine
 10
340.8484126949
 20
118.3096755577
 30
0.0
 11
253.3484126949
 21
118.3096755577
 31
0.0
  0
LINE
  5
F5
330
1F
100
AcDbEntity
  8
0
  6
Continuous
 62
     7
370
    25
100
AcDbLine
 10
383.8484126949
 20
216.9096755577
 30
0.0
 11
383.8484126949
 21
226.9096755577
 31
0.0
  0
LINE
  5
F6
330
1F
100
AcDbEntity
  8
0
  6
Continuous
 62
     7
370
    25
100
AcDbLine
 10
344.8484126949
 20
226.9096755577
 30
0.0
 11
344.8484126949
 21
216.9096755577
 31
0.0
  0
LINE
  5
F7
330
1F
100
AcDbEntity
  8
0
  6
Continuous
 62
     7
370
    25
100
AcDbLine
 10
401.7816866634
 20
63.3096755577
 30
0.0
 11
416.7816866634
 21
63.3096755577
 31
0.0
  0
LINE
  5
F8
330
1F
100
AcDbEntity
  8
0
  6
Continuous
 62
     7
370
    25
100
AcDbLine
 10
416.7816866634
 20
63.3096755577
 30
0.0
 11
416.7816866634
 21
56.3096755577
 31
0.0
  0
LINE
  5
F9
330
1F
100
AcDbEntity
  8
0
  6
Continuous
 62
     7
370
    25
100
AcDbLine
 10
416.7816866634
 20
56.3096755577
 30
0.0
 11
395.7848565142
 21
56.3096755577
 31
0.0
  0
ARC
  5
FA
330
1F
100
AcDbEntity
  8
0
  6
Continuous
 62
     7
370
    25
100
AcDbCircle
 10
364.3484126949
 20
54.3096755577
 30
0.0
 40
31.50000000000004
100
AcDbArc
 50
3.6402758756
 51
356.3597241244
  0
LINE
  5
FB
330
1F
100
AcDbEntity
  8
0
  6
Continuous
 62
     7
370
    25
100
AcDbLine
 10
395.7848565142
 20
52.3096755577
 30
0.0
 11
416.7816866634
 21
52.3096755577
 31
0.0
  0
LINE
  5
FC
330
1F
100
AcDbEntity
  8
0
  6
Continuous
 62
     7
370
    25
100
AcDbLine
 10
416.7816866634
 20
52.3096755577
 30
0.0
 11
416.7816866634
 21
45.3096755577
 31
0.0
  0
LINE
  5
FD
330
1F
100
AcDbEntity
  8
0
  6
Continuous
 62
     7
370
    25
100
AcDbLine
 10
416.7816866634
 20
45.3096755577
 30
0.0
 11
401.7816866634
 21
45.3096755577
 31
0.0
  0
ARC
  5
FE
330
1F
100
AcDbEntity
  8
0
  6
Continuous
 62
     7
370
    25
100
AcDbCircle
 10
364.3484126949
 20
54.3096755577
 30
0.0
 40
38.50000000000005
100
AcDbArc
 50
13.5189076399
 51
346.4810923601
  0
LINE
  5
FF
330
1F
100
AcDbEntity
  8
0
  6
Continuous
 62
     7
370
    25
100
AcDbLine
 10
371.3484126949
 20
107.8096755577
 30
0.0
 11
357.3484126949
 21
107.8096755577
 31
0.0
  0
LINE
  5
100
330
1F
100
AcDbEntity
  8
0
  6
Continuous
 62
     7
370
    25
100
AcDbLine
 10
384.3484126949
 20
172.9096755577
 30
0.0
 11
344.3484126949
 21
172.9096755577
 31
0.0
  0
LINE
  5
101
330
1F
100
AcDbEntity
  8
0
  6
Continuous
 62
     7
370
    25
100
AcDbLine
 10
387.8484126949
 20
169.4096755577
 30
0.0
 11
340.8484126949
 21
169.4096755577
 31
0.0
  0
SPLINE
  5
102
330
1F
100
AcDbEntity
  8
0
  6
Continuous
 62
     7
370
    25
100
AcDbSpline
210
0.0
220
0.0
230
1.0
 70
     8
 71
     3
 72
    28
 73
    24
 74
     0
 42
0.00000001
 43
0.00000001
 40
0.0
 40
0.0
 40
0.0
 40
0.0
 40
0.0453055700574924
 40
0.0920812461716478
 40
0.1373539544741387
 40
0.1837535077476575
 40
0.2330600154816427
 40
0.2834272641430425
 40
0.340620626743054
 40
0.3995835020083859
 40
0.4397155876663441
 40
0.4809138916397998
 40
0.5210922133795876
 40
0.5625854763711708
 40
0.6008984747081397
 40
0.639987211595337
 40
0.6969348823738106
 40
0.7555213138078584
 40
0.8128682907624246
 40
0.8720572184129297
 40
0.9167275782245092
 40
0.9626392200485024
 40
0.9999999999999999
 40
0.9999999999999999
 40
0.9999999999999999
 40
0.9999999999999999
 10
340.8484126949139
 20
118.3096755577313
 30
0.0
 10
340.8715117193479
 20
118.2758460371404
 30
0.0
 10
340.918459301125
 20
118.2070892725871
 30
0.0
 10
341.2877705834561
 20
117.6600320093254
 30
0.0
 10
341.8446056648498
 20
116.8133422096042
 30
0.0
 10
342.5765480320649
 20
115.6556970210764
 30
0.0
 10
343.4515159304249
 20
114.1851607299547
 30
0.0
 10
344.4541462943031
 20
112.3364368332722
 30
0.0
 10
345.5036374326138
 20
110.0932201825189
 30
0.0
 10
346.3551015390539
 20
107.7200139149724
 30
0.0
 10
346.8974642780312
 20
105.4163488726537
 30
0.0
 10
347.1501080627605
 20
103.3280234627371
 30
0.0
 10
347.1435749105452
 20
101.183010117661
 30
0.0
 10
346.8815121620839
 20
99.1243007558923
 30
0.0
 10
346.416341186697
 20
97.17592738577733
 30
0.0
 10
345.7258910866764
 20
95.10587517048444
 30
0.0
 10
344.7814356546021
 20
92.9313788557208
 30
0.0
 10
343.66721751218
 20
90.80566495527711
 30
0.0
 10
342.5994033518165
 20
88.99379097213364
 30
0.0
 10
341.7665426265081
 20
87.68467137619565
 30
0.0
 10
341.2058012225255
 20
86.83702871115854
 30
0.0
 10
340.8943250123734
 20
86.37696944728795
 30
0.0
 10
340.8735434115763
 20
86.34656989978853
 30
0.0
 10
340.8642195946647
 20
86.33293092087408
 30
0.0
  0
LINE
  5
103
330
1F
100
AcDbEntity
  8
0
  6
Continuous
 62
     7
370
    25
100
AcDbLine
 10
384.3484126949
 20
216.9096755577
 30
0.0
 11
344.3484126949
 21
216.9096755577
 31
0.0
  0
LINE
  5
104
330
1F
100
AcDbEntity
  8
0
  6
Continuous
 62
     7
370
    25
100
AcDbLine
 10
253.3484126949
 20
86.3096755577
 30
0.0
 11
253.3484126949
 21
118.3096755577
 31
0.0
  0
LINE
  5
105
330
1F
100
AcDbEntity
  8
0
  6
Continuous
 62
     7
370
    25
100
AcDbLine
 10
383.8484126949
 20
226.9096755577
 30
0.0
 11
344.8484126949
 21
226.9096755577
 31
0.0
  0
LINE
  5
106
330
1F
100
AcDbEntity
  8
0
  6
Continuous
 62
     7
370
    25
100
AcDbLine
 10
381.9917569513
 20
-186.0176968916
 30
0.0
 11
403.2049603869
 21
-173.7715752143
 31
0.0
  0
LINE
  5
107
330
1F
100
AcDbEntity
  8
0
  6
Continuous
 62
     7
370
    25
100
AcDbLine
 10
318.3521466445
 20
-222.7560619236
 30
0.0
 11
339.5653500801
 21
-210.5099402463
 31
0.0
  0
LINE
  5
108
330
1F
100
AcDbEntity
  8
0
  6
Continuous
 62
     7
370
    25
100
AcDbLine
 10
364.7080891804
 20
-107.0858128109
 30
0.0
 11
351.8183911732
 21
-114.526877083
 31
0.0
  0
LINE
  5
109
330
1F
100
AcDbEntity
  8
0
  6
Continuous
 62
     7
370
    25
100
AcDbLine
 10
385.6532239247
 20
-110.032471515
 30
0.0
 11
385.6532239247
 21
-99.805290996
 31
0.0
  0
LINE
  5
10A
330
1F
100
AcDbEntity
  8
0
  6
Continuous
 62
     7
370
    25
100
AcDbLine
 10
371.6532239247
 20
-99.805290996
 30
0.0
 11
371.6532239247
 21
-105.2829047759
 31
0.0
  0
LINE
  5
10B
330
1F
100
AcDbEntity
  8
0
  6
Continuous
 62
     7
370
    25
100
AcDbLine
 10
365.0301179125
 20
-106.9060274609
 30
0.0
 11
365.0301179125
 21
-70.9370899192
 31
0.0
  0
LINE
  5
10C
330
1F
100
AcDbEntity
  8
0
  6
Continuous
 62
     7
370
    25
100
AcDbLine
 10
318.0301179125
 20
-70.9370899192
 30
0.0
 11
318.0301179125
 21
-128.331381097
 31
0.0
  0
LINE
  5
10D
330
1F
100
AcDbEntity
  8
0
  6
Continuous
 62
     7
370
    25
100
AcDbLine
 10
428.0183204852
 20
-157.1808468048
 30
0.0
 11
410.1208112274
 21
-146.8488346334
 31
0.0
  0
LINE
  5
10E
330
1F
100
AcDbEntity
  8
0
  6
Continuous
 62
     7
370
    25
100
AcDbLine
 10
397.9785889095
 20
-176.7886952469
 30
0.0
 11
412.0196207631
 21
-184.894410401
 31
0.0
  0
LINE
  5
10F
330
1F
100
AcDbEntity
  8
0
  6
Continuous
 62
     7
370
    25
100
AcDbLine
 10
358.1498273434
 20
-61.3458535777
 30
0.0
 11
355.6745514707
 21
-59.9164427444
 31
0.0
  0
LINE
  5
110
330
1F
100
AcDbEntity
  8
0
  6
Continuous
 62
     7
370
    25
100
AcDbLine
 10
327.3856843542
 20
-59.9164427444
 30
0.0
 11
324.9104084815
 21
-61.3458535777
 31
0.0
  0
LINE
  5
111
330
1F
100
AcDbEntity
  8
0
  6
Continuous
 62
     7
370
    25
100
AcDbLine
 10
361.5301179125
 20
-63.8139583846
 30
0.0
 11
361.5301179125
 21
-32.1514013547
 31
0.0
  0
LINE
  5
112
330
1F
100
AcDbEntity
  8
0
  6
Continuous
 62
     7
370
    25
100
AcDbLine
 10
321.5301179125
 20
-32.1514013547
 30
0.0
 11
321.5301179125
 21
-63.8139583846
 31
0.0
  0
LINE
  5
113
330
1F
100
AcDbEntity
  8
0
  6
Continuous
 62
     7
370
    25
100
AcDbLine
 10
361.0301179125
 20
-29.5858786448
 30
0.0
 11
361.0301179125
 21
-23.9859932358
 31
0.0
  0
LINE
  5
114
330
1F
100
AcDbEntity
  8
0
  6
Continuous
 62
     7
370
    25
100
AcDbLine
 10
322.0301179125
 20
-23.9859932358
 30
0.0
 11
322.0301179125
 21
-29.5858786448
 31
0.0
  0
LINE
  5
115
330
1F
100
AcDbEntity
  8
0
  6
Continuous
 62
     7
370
    25
100
AcDbLine
 10
346.8806012007
 20
-126.3740862209
 30
0.0
 11
357.4872029185
 21
-132.4971470596
 31
0.0
  0
LINE
  5
116
330
1F
100
AcDbEntity
  8
0
  6
Continuous
 62
     7
370
    25
100
AcDbLine
 10
346.8806012007
 20
-120.6583005377
 30
0.0
 11
346.8806012007
 21
-126.3740862209
 31
0.0
  0
LINE
  5
117
330
1F
100
AcDbEntity
  8
0
  6
Continuous
 62
     7
370
    25
100
AcDbLine
 10
361.7276021827
 20
-129.2292917659
 30
0.0
 11
346.8806012007
 21
-120.6583005377
 31
0.0
  0
LWPOLYLINE
  5
118
330
1F
100
AcDbEntity
  8
0
  6
Continuous
 62
     7
370
    25
100
AcDbPolyline
 90
       78
 70
   128
 43
0.0
 10
361.7276021827
 20
-125.9631285184
 10
361.9115525535
 20
-124.024486634
 10
362.2363378308
 20
-122.190643476
 10
362.699883115
 20
-120.4733146014
 10
363.2992270344
 20
-118.8834712126
 10
364.0305406641
 20
-117.4312700674
 10
364.8891519869
 20
-116.1259885925
 10
365.869575741
 20
-114.9759656141
 10
366.9655484625
 20
-113.9885480856
 10
368.1700684997
 20
-113.1700441506
 10
369.4754407437
 20
-112.5256828439
 10
370.873325788
 20
-112.0595806853
 10
372.3547932061
 20
-111.7747153811
 10
373.9103786029
 20
-111.6729068011
 10
375.5301440786
 20
-111.7548053523
 10
377.2037417173
 20
-112.0198878234
 10
378.9204796949
 20
-112.4664607278
 10
380.6693905839
 20
-113.0916711225
 10
382.4393014194
 20
-113.8915248337
 10
384.2189050778
 20
-114.8609119741
 10
385.9968325125
 20
-115.9936395877
 10
387.7617253856
 20
-117.282471213
 10
389.5023086309
 20
-118.7191731142
 10
391.2074624848
 20
-120.2945668818
 10
392.8662935253
 20
-121.99858807
 10
394.4682042652
 20
-123.8203504927
 10
396.0029608539
 20
-125.7482157712
 10
397.4607584572
 20
-127.7698676853
 10
398.8322838952
 20
-129.8723908569
 10
400.1087751403
 20
-132.0423532591
 10
401.2820772933
 20
-134.265892028
 10
402.3446946815
 20
-136.5288020255
 10
403.2898387446
 20
-138.8166265894
 10
404.1114714041
 20
-141.11474989
 10
404.8043436372
 20
-143.4084903039
 10
405.3640290108
 20
-145.6831942079
 10
405.7869519596
 20
-147.924329594
 10
406.0704106288
 20
-150.1175789078
 10
406.2125941351
 20
-152.2489305161
 10
406.2125941351
 20
-154.3047682209
 10
406.0704106288
 20
-156.2719582472
 10
405.7869519596
 20
-158.1379331477
 10
405.3640290108
 20
-159.8907720908
 10
404.8043436372
 20
-161.5192770172
 10
404.1114714041
 20
-163.0130441786
 10
403.2898387446
 20
-164.3625306029
 10
402.3446946815
 20
-165.5591150592
 10
401.2820772933
 20
-166.5951531351
 10
400.1087751403
 20
-167.464026073
 10
398.8322838952
 20
-168.1601830544
 10
397.4607584572
 20
-168.6791766616
 10
396.0029608539
 20
-169.0176912896
 10
394.4682042652
 20
-169.1735643286
 10
392.8662935253
 20
-169.1457999794
 10
391.2074624848
 20
-168.9345756153
 10
389.5023086309
 20
-168.5412406489
 10
387.7617253856
 20
-167.9683079113
 10
385.9968325125
 20
-167.219437599
 10
384.2189050778
 20
-166.2994138905
 10
382.4393014194
 20
-165.2141143822
 10
380.6693905839
 20
-163.9704725397
 10
378.9204796949
 20
-162.5764334028
 10
377.2037417173
 20
-161.0409028287
 10
375.5301440786
 20
-159.3736905961
 10
373.9103786029
 20
-157.5854477361
 10
372.3547932061
 20
-155.6875984868
 10
370.873325788
 20
-153.69226731
 10
369.4754407437
 20
-151.6122014334
 10
368.1700684997
 20
-149.4606894145
 10
366.9655484625
 20
-147.2514762465
 10
365.869575741
 20
-144.9986755482
 10
364.8891519869
 20
-142.7166793981
 10
364.0305406641
 20
-140.4200663909
 10
363.2992270344
 20
-138.1235085016
 10
362.699883115
 20
-135.8416773528
 10
362.2363378308
 20
-133.589150485
 10
361.9115525535
 20
-131.3803182277
 10
361.7276021827
 20
-129.2292917659
  0
LINE
  5
119
330
1F
100
AcDbEntity
  8
0
  6
Continuous
 62
     7
370
    25
100
AcDbLine
 10
346.8806012007
 20
-117.3921372902
 30
0.0
 11
361.7276021827
 21
-125.9631285184
 31
0.0
  0
LINE
  5
11A
330
1F
100
AcDbEntity
  8
0
  6
Continuous
 62
     7
370
    25
100
AcDbLine
 10
346.8806012007
 20
-111.676351607
 30
0.0
 11
346.8806012007
 21
-117.3921372902
 31
0.0
  0
LINE
  5
11B
330
1F
100
AcDbEntity
  8
0
  6
Continuous
 62
     7
370
    25
100
AcDbLine
 10
357.4872029185
 20
-117.7994124456
 30
0.0
 11
346.8806012007
 21
-111.676351607
 31
0.0
  0
LWPOLYLINE
  5
11C
330
1F
100
AcDbEntity
  8
0
  6
Continuous
 62
     7
370
    25
100
AcDbPolyline
 90
       81
 70
   128
 43
0.0
 10
357.4872029185
 20
-132.4971470596
 10
358.0188864532
 20
-135.0030812373
 10
358.6873756389
 20
-137.5376323029
 10
359.4891445917
 20
-140.0874320034
 10
360.4199644562
 20
-142.6390316585
 10
361.47492571
 20
-145.1789730942
 10
362.6484640585
 20
-147.6938596265
 10
363.9343897832
 20
-150.1704267213
 10
365.3259203891
 20
-152.5956119567
 10
366.8157163778
 20
-154.9566239198
 10
368.3959199596
 20
-157.2410096733
 10
370.0581964983
 20
-159.4367204381
 10
371.7937784715
 20
-161.5321751428
 10
373.5935117142
 20
-163.5163215072
 10
375.4479037015
 20
-165.3786943366
 10
377.3471736161
 20
-167.1094707194
 10
379.2813039361
 20
-168.6995218374
 10
381.2400932718
 20
-170.1404611143
 10
383.2132101718
 20
-171.4246884506
 10
385.1902476154
 20
-172.545430309
 10
387.1607779031
 20
-173.4967754413
 10
389.1144076569
 20
-174.2737060665
 10
391.0408326393
 20
-174.8721243366
 10
392.9298921015
 20
-175.2888739502
 10
394.7716223758
 20
-175.5217568005
 10
396.556309428
 20
-175.5695445685
 10
398.2745400928
 20
-175.4319852023
 10
399.9172517231
 20
-175.1098042458
 10
401.4757799897
 20
-174.6047010124
 10
402.941904581
 20
-173.9193396219
 10
404.3078925597
 20
-173.0573349489
 10
405.5665391497
 20
-172.0232335567
 10
406.7112057372
 20
-170.8224897163
 10
407.7358548851
 20
-169.4614366391
 10
408.6350821773
 20
-167.9472530725
 10
409.4041447234
 20
-166.2879254361
 10
410.0389861747
 20
-164.4922056987
 10
410.5362581194
 20
-162.5695652163
 10
410.8933377429
 20
-160.5301447765
 10
411.1083416623
 20
-158.3847011121
 10
411.1801358593
 20
-156.1445501652
 10
411.1083416623
 20
-153.8215074028
 10
410.8933377429
 20
-151.4278254969
 10
410.5362581194
 20
-148.9761296993
 10
410.0389861747
 20
-146.4793512505
 10
409.4041447234
 20
-143.9506591751
 10
408.6350821773
 20
-141.4033908235
 10
407.7358548851
 20
-138.8509815245
 10
406.7112057372
 20
-136.3068937227
 10
405.5665391497
 20
-133.7845459716
 10
404.3078925597
 20
-131.2972421588
 10
402.941904581
 20
-128.8581013359
 10
401.4757799897
 20
-126.4799885236
 10
399.9172517231
 20
-124.1754468556
 10
398.2745400928
 20
-121.9566314217
 10
396.556309428
 20
-119.8352451569
 10
394.7716223758
 20
-117.8224771147
 10
392.9298921015
 20
-115.9289434522
 10
391.0408326393
 20
-114.164631436
 10
389.1144076569
 20
-112.5388467649
 10
387.1607779031
 20
-111.0601644884
 10
385.1902476154
 20
-109.736383778
 10
383.2132101718
 20
-108.5744867914
 10
381.2400932718
 20
-107.5806018459
 10
379.2813039361
 20
-106.7599710946
 10
377.3471736161
 20
-106.116922878
 10
375.4479037015
 20
-105.6548488936
 10
373.5935117142
 20
-105.3761863077
 10
371.7937784715
 20
-105.2824049
 10
370.0581964983
 20
-105.3739993117
 10
368.3959199596
 20
-105.6504864368
 10
366.8157163778
 20
-106.1104079696
 10
365.3259203891
 20
-106.7513380971
 10
363.9343897832
 20
-107.569896293
 10
362.6484640585
 20
-108.5617651487
 10
361.47492571
 20
-109.7217131445
 10
360.4199644562
 20
-111.0436222431
 10
359.4891445917
 20
-112.5205201583
 10
358.6873756389
 20
-114.14461713
 10
358.0188864532
 20
-115.9073470105
 10
357.4872029185
 20
-117.7994124456
  0
LINE
  5
11D
330
1F
100
AcDbEntity
  8
0
  6
Continuous
 62
     7
370
    25
100
AcDbLine
 10
357.4872029185
 20
-132.4971470596
 30
0.0
 11
272.6343891761
 21
-181.481633769
 31
0.0
  0
LWPOLYLINE
  5
11E
330
1F
100
AcDbEntity
  8
0
  6
Continuous
 62
     7
370
    25
100
AcDbPolyline
 90
       31
 70
   128
 43
0.0
 10
272.6343891761
 20
-181.481633769
 10
273.1660727108
 20
-183.9875679467
 10
273.8345618965
 20
-186.5221190122
 10
274.6363308493
 20
-189.0719187128
 10
275.5671507138
 20
-191.6235183679
 10
276.6221119676
 20
-194.1634598036
 10
277.7956503161
 20
-196.6783463359
 10
279.0815760409
 20
-199.1549134306
 10
280.4731066467
 20
-201.5800986661
 10
281.9629026354
 20
-203.9411106291
 10
283.5431062172
 20
-206.2254963827
 10
285.2053827559
 20
-208.4212071475
 10
286.9409647291
 20
-210.5166618522
 10
288.7406979719
 20
-212.5008082165
 10
290.5950899592
 20
-214.3631810459
 10
292.4943598737
 20
-216.0939574288
 10
294.4284901937
 20
-217.6840085468
 10
296.3872795294
 20
-219.1249478237
 10
298.3603964295
 20
-220.4091751599
 10
300.337433873
 20
-221.5299170183
 10
302.3079641607
 20
-222.4812621507
 10
304.2615939145
 20
-223.2581927759
 10
306.1880188969
 20
-223.8566110459
 10
308.0770783591
 20
-224.2733606596
 10
309.9188086335
 20
-224.5062435098
 10
311.7034956856
 20
-224.5540312779
 10
313.4217263504
 20
-224.4164719117
 10
315.0644379807
 20
-224.0942909552
 10
316.6229662474
 20
-223.5891877217
 10
318.0890908386
 20
-222.9038263312
 10
318.3521466445
 20
-222.7560619236
  0
LINE
  5
11F
330
1F
100
AcDbEntity
  8
0
  6
Continuous
 62
     7
370
    25
100
AcDbLine
 10
294.0276581161
 20
-170.1560025066
 30
0.0
 11
336.4540649873
 21
-145.6637591519
 31
0.0
  0
LWPOLYLINE
  5
120
330
1F
100
AcDbEntity
  8
0
  6
Continuous
 62
     7
370
    25
100
AcDbPolyline
 90
       37
 70
   128
 43
0.0
 10
346.6061708376
 20
-200.5089318204
 10
346.0233915988
 20
-202.3550863781
 10
345.3049215174
 20
-204.0682867143
 10
344.4545530156
 20
-205.6394897543
 10
343.4767747371
 20
-207.0604019515
 10
342.3767478542
 20
-208.323523065
 10
341.1602788247
 20
-209.422185749
 10
339.8337887427
 20
-210.3505907467
 10
338.4042794449
 20
-211.1038375011
 10
336.8792965519
 20
-211.6779500224
 10
335.2668896386
 20
-212.0698978757
 10
333.5755697449
 20
-212.2776121763
 10
331.8142644504
 20
-212.2999965106
 10
329.9922707505
 20
-212.1369327238
 10
328.1192059824
 20
-211.7892815429
 10
326.2049570606
 20
-211.2588780338
 10
324.2596282885
 20
-210.5485219152
 10
322.2934880238
 20
-209.6619627797
 10
320.3169144769
 20
-208.6038803022
 10
318.3403409299
 20
-207.3798595384
 10
316.3742006652
 20
-205.9963614437
 10
314.4288718931
 20
-204.4606887702
 10
312.5146229713
 20
-202.7809475183
 10
310.6415582032
 20
-200.9660041502
 10
308.8195645033
 20
-199.0254387881
 10
307.0582592088
 20
-196.9694946463
 10
305.3669393151
 20
-194.809023962
 10
303.7545324018
 20
-192.5554307129
 10
302.2295495088
 20
-190.2206104209
 10
300.800040211
 20
-187.8168873628
 10
299.473550129
 20
-185.356949516
 10
298.2570810995
 20
-182.8537815862
 10
297.1570542166
 20
-180.3205964679
 10
296.1792759381
 20
-177.7707655
 10
295.3289074363
 20
-175.2177478863
 10
294.6104373549
 20
-172.6750196511
 10
294.0276581161
 20
-170.1560025066
  0
LINE
  5
121
330
1F
100
AcDbEntity
  8
0
  6
Continuous
 62
     7
370
    25
100
AcDbLine
 10
369.810116323
 20
-187.1135792197
 30
0.0
 11
346.6061708376
 21
-200.5089318204
 31
0.0
  0
LWPOLYLINE
  5
122
330
1F
100
AcDbEntity
  8
0
  6
Continuous
 62
     7
370
    25
100
AcDbPolyline
 90
       30
 70
   128
 43
0.0
 10
336.4540649873
 20
-145.6637591519
 10
337.0368442261
 20
-148.1827762964
 10
337.7553143075
 20
-150.7255045316
 10
338.6056828093
 20
-153.2785221453
 10
339.5834610878
 20
-155.8283531132
 10
340.6834879707
 20
-158.3615382315
 10
341.8999570002
 20
-160.8647061613
 10
343.2264470822
 20
-163.3246440081
 10
344.65595638
 20
-165.7283670662
 10
346.180939273
 20
-168.0631873582
 10
347.7933461863
 20
-170.3167806073
 10
349.48466608
 20
-172.4772512916
 10
351.2459713745
 20
-174.5331954335
 10
353.0679650744
 20
-176.4737607955
 10
354.9410298425
 20
-178.2887041636
 10
356.8552787643
 20
-179.9684454155
 10
358.8006075364
 20
-181.5041180891
 10
360.7667478011
 20
-182.8876161837
 10
362.743321348
 20
-184.1116369475
 10
364.719894895
 20
-185.169719425
 10
366.6860351597
 20
-186.0562785605
 10
368.6313639318
 20
-186.7666346791
 10
370.5456128536
 20
-187.2970381882
 10
372.4186776217
 20
-187.6446893691
 10
374.2406713216
 20
-187.807753156
 10
376.0019766161
 20
-187.7853688216
 10
377.6932965098
 20
-187.577654521
 10
379.3057034231
 20
-187.1857066678
 10
380.8306863161
 20
-186.6115941464
 10
381.9917569513
 20
-186.0176968916
  0
LINE
  5
123
330
1F
100
AcDbEntity
  8
0
  6
Continuous
 62
     7
370
    25
100
AcDbLine
 10
361.7276021827
 20
-125.9631285184
 30
0.0
 11
358.8987153216
 21
-127.5962101422
 31
0.0
  0
LWPOLYLINE
  5
124
330
1F
100
AcDbEntity
  8
0
  6
Continuous
 62
     7
370
    25
100
AcDbPolyline
 90
       19
 70
   128
 43
0.0
 10
306.1782116253
 20
-169.1080039432
 10
306.3546487424
 20
-169.2790535912
 10
308.0134797829
 20
-170.9830747793
 10
309.6153905228
 20
-172.8048372021
 10
311.1501471115
 20
-174.7327024805
 10
312.6079447148
 20
-176.7543543947
 10
313.9794701528
 20
-178.8568775662
 10
315.2559613979
 20
-181.0268399684
 10
316.429263551
 20
-183.2503787374
 10
317.4918809391
 20
-185.5132887349
 10
318.4370250022
 20
-187.8011132988
 10
319.2586576617
 20
-190.0992365993
 10
319.9515298948
 20
-192.3929770132
 10
320.5112152684
 20
-194.6676809172
 10
320.9341382172
 20
-196.9088163034
 10
321.2175968865
 20
-199.1020656171
 10
321.3597803927
 20
-201.2334172254
 10
321.3597803927
 20
-203.2892549303
 10
321.3532825586
 20
-203.4585204153
  0
LINE
  5
125
330
1F
100
AcDbEntity
  8
0
  6
Continuous
 62
     7
370
    25
100
AcDbLine
 10
337.7955640969
 20
-150.8556948727
 30
0.0
 11
299.1952431415
 21
-173.1391858428
 31
0.0
  0
LINE
  5
126
330
1F
100
AcDbEntity
  8
0
  6
Continuous
 62
     7
370
    25
100
AcDbLine
 10
341.4385858122
 20
-197.5257484841
 30
0.0
 11
363.72695255
 21
-184.658948244
 31
0.0
  0
LWPOLYLINE
  5
127
330
1F
100
AcDbEntity
  8
0
  6
Continuous
 62
     7
370
    25
100
AcDbPolyline
 90
       32
 70
   128
 43
0.0
 10
299.1952431415
 20
-173.1391858428
 10
299.8322473168
 20
-175.4417896437
 10
300.601924793
 20
-177.7555675186
 10
301.4992905906
 20
-180.0655337932
 10
302.5185327289
 20
-182.3567274801
 10
303.6530498699
 20
-184.6143091762
 10
304.8954940719
 20
-186.8236571739
 10
306.2378183812
 20
-188.9704621613
 10
307.6713289488
 20
-191.0408198995
 10
309.1867413391
 20
-193.0213212766
 10
310.7742406614
 20
-194.8991391544
 10
312.4235451391
 20
-196.6621114463
 10
314.123972701
 20
-198.2988198875
 10
315.8645101668
 20
-199.798663988
 10
317.6338845754
 20
-201.1519296886
 10
319.4206361974
 20
-202.3498522764
 10
321.2131927563
 20
-203.384673151
 10
322.9999443783
 20
-204.2496900752
 10
324.769318787
 20
-204.9393005829
 10
326.5098562527
 20
-205.4490382652
 10
328.2102838146
 20
-205.7756016976
 10
329.8595882923
 20
-205.9168758225
 10
331.4470876146
 20
-205.8719456482
 10
332.9625000049
 20
-205.6411021744
 10
334.3960105725
 20
-205.2258405079
 10
335.7383348818
 20
-204.6288501793
 10
336.9807790838
 20
-203.8539977232
 10
338.1152962248
 20
-202.9063016362
 10
339.1345383632
 20
-201.7918998737
 10
340.0319041607
 20
-200.5180100953
 10
340.8015816369
 20
-199.0928829191
 10
341.4385858122
 20
-197.5257484841
  0
LINE
  5
128
330
1F
100
AcDbEntity
  8
0
  6
Continuous
 62
     7
370
    25
100
AcDbLine
 10
346.8806012007
 20
-126.3740862209
 30
0.0
 11
262.0277874583
 21
-175.3585729303
 31
0.0
  0
LINE
  5
129
330
1F
100
AcDbEntity
  8
0
  6
Continuous
 62
     7
370
    25
100
AcDbLine
 10
262.0277874583
 20
-175.3585729303
 30
0.0
 11
272.6343891761
 21
-181.481633769
 31
0.0
  0
LINE
  5
12A
330
1F
100
AcDbEntity
  8
0
  6
Continuous
 62
     7
370
    25
100
AcDbLine
 10
346.8806012007
 20
-120.6583005377
 30
0.0
 11
262.0277874583
 21
-169.6427872471
 31
0.0
  0
LINE
  5
12B
330
1F
100
AcDbEntity
  8
0
  6
Continuous
 62
     7
370
    25
100
AcDbLine
 10
262.0277874583
 20
-169.6427872471
 30
0.0
 11
262.0277874583
 21
-175.3585729303
 31
0.0
  0
LINE
  5
12C
330
1F
100
AcDbEntity
  8
0
  6
Continuous
 62
     7
370
    25
100
AcDbLine
 10
346.8806012007
 20
-117.3921372902
 30
0.0
 11
262.0277874583
 21
-166.3766239995
 31
0.0
  0
LINE
  5
12D
330
1F
100
AcDbEntity
  8
0
  6
Continuous
 62
     7
370
    25
100
AcDbLine
 10
262.0277874583
 20
-166.3766239995
 30
0.0
 11
264.8566743194
 21
-168.0097056233
 31
0.0
  0
LINE
  5
12E
330
1F
100
AcDbEntity
  8
0
  6
Continuous
 62
     7
370
    25
100
AcDbLine
 10
346.8806012007
 20
-111.676351607
 30
0.0
 11
262.0277874583
 21
-160.6608383163
 31
0.0
  0
LINE
  5
12F
330
1F
100
AcDbEntity
  8
0
  6
Continuous
 62
     7
370
    25
100
AcDbLine
 10
262.0277874583
 20
-160.6608383163
 30
0.0
 11
262.0277874583
 21
-166.3766239995
 31
0.0
  0
LINE
  5
130
330
1F
100
AcDbEntity
  8
0
  6
Continuous
 62
     7
370
    25
100
AcDbLine
 10
299.1952431415
 20
-173.1391858428
 30
0.0
 11
294.0276581161
 21
-170.1560025066
 31
0.0
  0
LINE
  5
131
330
1F
100
AcDbEntity
  8
0
  6
Continuous
 62
     7
370
    25
100
AcDbLine
 10
346.6061708376
 20
-200.5089318204
 30
0.0
 11
341.4385858122
 21
-197.5257484841
 31
0.0
  0
LWPOLYLINE
  5
132
330
1F
100
AcDbEntity
  8
0
  6
Continuous
 62
     7
370
    25
100
AcDbPolyline
 90
       21
 70
   128
 43
0.0
 10
371.6532239247
 20
-99.805290996
 10
371.6548009115
 20
-99.7195189252
 10
371.7805766059
 20
-99.0379718541
 10
372.1040658507
 20
-98.3784991578
 10
372.6159624493
 20
-97.7600726648
 10
373.3015400684
 20
-97.2004833795
 10
374.1410758884
 20
-96.7158296668
 10
375.1104179921
 20
-96.3200541316
 10
376.1816801721
 20
-96.0245425154
 10
377.3240441659
 20
-95.8377961494
 10
378.5046462414
 20
-95.7651873865
 10
379.6895226263
 20
-95.8088050487
 10
380.8445865844
 20
-95.9673943352
 10
381.9366090285
 20
-96.236392921
 10
382.9341744613
 20
-96.6080622066
 10
383.8085847414
 20
-97.0717099432
 10
384.5346846771
 20
-97.6139978297
 10
385.0915856954
 20
-98.2193252309
 10
385.4632667678
 20
-98.8702779796
 10
385.6390353067
 20
-99.5481293505
 10
385.6532239247
 20
-99.805290996
  0
LWPOLYLINE
  5
133
330
1F
100
AcDbEntity
  8
0
  6
Continuous
 62
     7
370
    25
100
AcDbPolyline
 90
       36
 70
   128
 43
0.0
 10
365.0301179125
 20
-70.9370899192
 10
365.0050428203
 20
-70.3105530545
 10
364.804763038
 20
-69.0628247168
 10
364.4059121899
 20
-67.8310869489
 10
363.8118931308
 20
-66.6258485033
 10
363.0277738219
 20
-65.4573920492
 10
362.0602440926
 20
-64.3356864453
 10
360.9175585655
 20
-63.2703016883
 10
359.6094662305
 20
-62.2703272652
 10
358.1471272703
 20
-61.3442946053
 10
356.5430178453
 20
-60.5001042927
 10
354.8108236514
 20
-59.7449586614
 10
352.9653231588
 20
-59.0853003478
 10
351.0222615269
 20
-58.526757324
 10
348.9982162726
 20
-58.0740948822
 10
346.9104558363
 20
-57.7311749786
 10
344.7767922538
 20
-57.5009232851
 10
342.6154291906
 20
-57.3853042278
 10
340.4448066343
 20
-57.3853042278
 10
338.2834435711
 20
-57.5009232851
 10
336.1497799886
 20
-57.7311749786
 10
334.0620195523
 20
-58.0740948822
 10
332.037974298
 20
-58.526757324
 10
330.0949126661
 20
-59.0853003478
 10
328.2494121735
 20
-59.7449586614
 10
326.5172179796
 20
-60.5001042927
 10
324.9131085546
 20
-61.3442946053
 10
323.4507695944
 20
-62.2703272652
 10
322.1426772594
 20
-63.2703016883
 10
320.9999917323
 20
-64.3356864453
 10
320.032462003
 20
-65.4573920492
 10
319.2483426941
 20
-66.6258485033
 10
318.654323635
 20
-67.8310869489
 10
318.2554727869
 20
-69.0628247168
 10
318.0551930046
 20
-70.3105530545
 10
318.0301179125
 20
-70.9370899192
  0
LWPOLYLINE
  5
134
330
1F
100
AcDbEntity
  8
0
  6
Continuous
 62
     7
370
    25
100
AcDbPolyline
 90
       30
 70
   128
 43
0.0
 10
428.0183204852
 20
-157.1808468048
 10
428.0189706242
 20
-157.181222183
 10
428.8643841121
 20
-157.7856021838
 10
429.5985613933
 20
-158.5566341058
 10
430.2122697623
 20
-159.4846217752
 10
430.6977914803
 20
-160.5578952087
 10
431.0490208301
 20
-161.7629573702
 10
431.2615408988
 20
-163.0846539036
 10
431.3326791231
 20
-164.5063637083
 10
431.2615408988
 20
-166.0102079586
 10
431.0490208301
 20
-167.5772749405
 10
430.6977914803
 20
-169.1878578775
 10
430.2122697623
 20
-170.8217027545
 10
429.5985613933
 20
-172.4582630244
 10
428.8643841121
 20
-174.0769579922
 10
428.0189706242
 20
-175.6574316294
 10
427.0729524945
 20
-177.1798085631
 10
426.03822645
 20
-178.6249440201
 10
424.927804771
 20
-179.9746645834
 10
423.7556516544
 20
-181.2119967338
 10
422.5365076059
 20
-182.3213803018
 10
421.285704069
 20
-183.2888641451
 10
420.0189706242
 20
-184.1022815931
 10
418.7522371793
 20
-184.7514034495
 10
417.5014336425
 20
-185.2280666303
 10
416.2822895939
 20
-185.5262768194
 10
415.1101364773
 20
-185.6422838506
 10
413.9997147984
 20
-185.5746288684
 10
412.9649887538
 20
-185.3241626732
 10
412.0196207631
 20
-184.894410401
  0
ARC
  5
135
330
1F
100
AcDbEntity
  8
0
  6
Continuous
 62
     7
370
    25
100
AcDbCircle
 10
341.5301179125
 20
-86.9939082533
 30
0.0
 40
30.54920848523478
100
AcDbArc
 50
62.4188204464
 51
117.5811795536
  0
LWPOLYLINE
  5
136
330
1F
100
AcDbEntity
  8
0
  6
Continuous
 62
     7
370
    25
100
AcDbPolyline
 90
       33
 70
   128
 43
0.0
 10
361.5301179125
 20
-32.1514013547
 10
361.5236994184
 20
-31.8589160609
 10
361.3698614535
 20
-30.6927269864
 10
361.0124408724
 20
-29.5415058849
 10
360.4551052939
 20
-28.4170658426
 10
359.7035737353
 20
-27.330945136
 10
358.7655579273
 20
-26.2942888334
 10
357.6506831815
 20
-25.3177344311
 10
356.3703896215
 20
-24.411302699
 10
354.9378147916
 20
-23.584294853
 10
353.3676588482
 20
-22.8451971129
 10
351.6760337161
 20
-22.2015936217
 10
349.8802977582
 20
-21.660088622
 10
347.9988776554
 20
-21.226238688
 10
346.0510793241
 20
-20.904495707
 10
344.0568898109
 20
-20.6981611975
 10
342.0367721987
 20
-20.6093524307
 10
340.0114556279
 20
-20.6389807048
 10
338.0017225873
 20
-20.7867419935
 10
336.0281956574
 20
-21.0511200661
 10
334.1111258951
 20
-21.4294020458
 10
332.2701850303
 20
-21.9177062476
 10
330.5242636077
 20
-22.5110220096
 10
328.8912771435
 20
-23.2032611091
 10
327.3879822887
 20
-23.9873202364
 10
326.0298048828
 20
-24.8551538837
 10
324.8306816638
 20
-25.7978569035
 10
323.8029172587
 20
-26.8057558871
 10
322.957057921
 20
-27.8685084269
 10
322.3017833122
 20
-28.9752092439
 10
321.8438174365
 20
-30.1145020901
 10
321.5878596435
 20
-31.274696279
 10
321.5301179125
 20
-32.1514013547
  0
LWPOLYLINE
  5
137
330
1F
100
AcDbEntity
  8
0
  6
Continuous
 62
     7
370
    25
100
AcDbPolyline
 90
       33
 70
   128
 43
0.0
 10
361.0301179125
 20
-23.9859932358
 10
361.0238598807
 20
-23.7008200744
 10
360.8738678649
 20
-22.5637857268
 10
360.5253827984
 20
-21.4413451528
 10
359.9819806094
 20
-20.3450161115
 10
359.2492373397
 20
-19.2860484226
 10
358.334671927
 20
-18.2753085276
 10
357.2476690498
 20
-17.3231679854
 10
355.9993828287
 20
-16.4393970465
 10
354.6026223696
 20
-15.6330643967
 10
353.0717203248
 20
-14.9124441001
 10
351.422385821
 20
-14.2849306961
 10
349.671543262
 20
-13.7569633215
 10
347.8371586619
 20
-13.3339596358
 10
345.9380552888
 20
-13.0202602293
 10
343.9937205134
 20
-12.8190840826
 10
342.0241058416
 20
-12.7324955349
 10
340.0494221851
 20
-12.7613831021
 10
338.0899324704
 20
-12.9054503586
 10
336.1657437137
 20
-13.1632189794
 10
334.2966006955
 20
-13.5320439096
 10
332.5016833524
 20
-14.0081405064
 10
330.7994099653
 20
-14.5866233743
 10
329.2072481627
 20
-15.2615564964
 10
327.7415356793
 20
-16.0260141455
 10
326.4173127085
 20
-16.8721519517
 10
325.24816757
 20
-17.7912873959
 10
324.246097275
 20
-18.7739889049
 10
323.4213844208
 20
-19.8101726313
 10
322.7824916772
 20
-20.8892059279
 10
322.3359749484
 20
-22.0000164528
 10
322.0864161002
 20
-23.131205787
 10
322.0301179125
 20
-23.9859932358
  0
LINE
  5
138
330
1F
100
AcDbEntity
  8
0
  6
Continuous
 62
     7
370
    25
100
AcDbLine
 10
-77.4136066758
 20
92.1679639501
 30
0.0
 11
-77.4136066758
 21
107.8096755577
 31
0.0
  0
LINE
  5
139
330
1F
100
AcDbEntity
  8
0
  6
Continuous
 62
     7
370
    25
100
AcDbLine
 10
-91.4136066758
 20
107.8096755577
 30
0.0
 11
-91.4136066758
 21
92.1713695354
 31
0.0
  0
LINE
  5
13A
330
1F
100
AcDbEntity
  8
0
  6
Continuous
 62
     7
370
    25
100
AcDbLine
 10
-60.9136066758
 20
169.4096755577
 30
0.0
 11
-64.4136066758
 21
172.9096755577
 31
0.0
  0
LINE
  5
13B
330
1F
100
AcDbEntity
  8
0
  6
Continuous
 62
     7
370
    25
100
AcDbLine
 10
-104.4136066758
 20
172.9096755577
 30
0.0
 11
-107.9136066758
 21
169.4096755577
 31
0.0
  0
LINE
  5
13C
330
1F
100
AcDbEntity
  8
0
  6
Continuous
 62
     7
370
    25
100
AcDbLine
 10
-60.9136066758
 20
118.3096755577
 30
0.0
 11
-60.9136066758
 21
169.4096755577
 31
0.0
  0
LINE
  5
13D
330
1F
100
AcDbEntity
  8
0
  6
Continuous
 62
     7
370
    25
100
AcDbLine
 10
-60.9136066758
 20
84.8055769217
 30
0.0
 11
-60.9136066758
 21
86.3329309209
 31
0.0
  0
LINE
  5
13E
330
1F
100
AcDbEntity
  8
0
  6
Continuous
 62
     7
370
    25
100
AcDbLine
 10
-107.9136066758
 20
169.4096755577
 30
0.0
 11
-107.9136066758
 21
84.8176310855
 31
0.0
  0
LINE
  5
13F
330
1F
100
AcDbEntity
  8
0
  6
Continuous
 62
     7
370
    25
100
AcDbLine
 10
-64.4136066758
 20
172.9096755577
 30
0.0
 11
-64.4136066758
 21
216.9096755577
 31
0.0
  0
LINE
  5
140
330
1F
100
AcDbEntity
  8
0
  6
Continuous
 62
     7
370
    25
100
AcDbLine
 10
-104.4136066758
 20
216.9096755577
 30
0.0
 11
-104.4136066758
 21
172.9096755577
 31
0.0
  0
LINE
  5
141
330
1F
100
AcDbEntity
  8
0
  6
Continuous
 62
     7
370
    25
100
AcDbLine
 10
26.5863933242
 20
118.3096755577
 30
0.0
 11
-60.9136066758
 21
118.3096755577
 31
0.0
  0
LINE
  5
142
330
1F
100
AcDbEntity
  8
0
  6
Continuous
 62
     7
370
    25
100
AcDbLine
 10
-60.9293932612
 20
86.3096755577
 30
0.0
 11
26.5863933242
 21
86.3096755577
 31
0.0
  0
LINE
  5
143
330
1F
100
AcDbEntity
  8
0
  6
Continuous
 62
     7
370
    25
100
AcDbLine
 10
-64.9136066758
 20
216.9096755577
 30
0.0
 11
-64.9136066758
 21
226.9096755577
 31
0.0
  0
LINE
  5
144
330
1F
100
AcDbEntity
  8
0
  6
Continuous
 62
     7
370
    25
100
AcDbLine
 10
-103.9136066758
 20
226.9096755577
 30
0.0
 11
-103.9136066758
 21
216.9096755577
 31
0.0
  0
LINE
  5
145
330
1F
100
AcDbEntity
  8
0
  6
Continuous
 62
     7
370
    25
100
AcDbLine
 10
-136.8468806443
 20
45.3096755577
 30
0.0
 11
-121.8468806443
 21
45.3096755577
 31
0.0
  0
LINE
  5
146
330
1F
100
AcDbEntity
  8
0
  6
Continuous
 62
     7
370
    25
100
AcDbLine
 10
-136.8468806443
 20
52.3096755577
 30
0.0
 11
-136.8468806443
 21
45.3096755577
 31
0.0
  0
LINE
  5
147
330
1F
100
AcDbEntity
  8
0
  6
Continuous
 62
     7
370
    25
100
AcDbLine
 10
-115.850050495
 20
52.3096755577
 30
0.0
 11
-136.8468806443
 21
52.3096755577
 31
0.0
  0
ARC
  5
148
330
1F
100
AcDbEntity
  8
0
  6
Continuous
 62
     7
370
    25
100
AcDbCircle
 10
-84.4136066758
 20
54.3096755577
 30
0.0
 40
31.50000000000001
100
AcDbArc
 50
183.6402758756
 51
176.3597241244
  0
LINE
  5
149
330
1F
100
AcDbEntity
  8
0
  6
Continuous
 62
     7
370
    25
100
AcDbLine
 10
-136.8468806443
 20
56.3096755577
 30
0.0
 11
-115.850050495
 21
56.3096755577
 31
0.0
  0
LINE
  5
14A
330
1F
100
AcDbEntity
  8
0
  6
Continuous
 62
     7
370
    25
100
AcDbLine
 10
-136.8468806443
 20
63.3096755577
 30
0.0
 11
-136.8468806443
 21
56.3096755577
 31
0.0
  0
LINE
  5
14B
330
1F
100
AcDbEntity
  8
0
  6
Continuous
 62
     7
370
    25
100
AcDbLine
 10
-121.8468806443
 20
63.3096755577
 30
0.0
 11
-136.8468806443
 21
63.3096755577
 31
0.0
  0
ARC
  5
14C
330
1F
100
AcDbEntity
  8
0
  6
Continuous
 62
     7
370
    25
100
AcDbCircle
 10
-84.4136066758
 20
54.3096755577
 30
0.0
 40
38.50000000000001
100
AcDbArc
 50
193.5189076399
 51
166.4810923601
  0
LINE
  5
14D
330
1F
100
AcDbEntity
  8
0
  6
Continuous
 62
     7
370
    25
100
AcDbLine
 10
-91.4136066758
 20
107.8096755577
 30
0.0
 11
-77.4136066758
 21
107.8096755577
 31
0.0
  0
LINE
  5
14E
330
1F
100
AcDbEntity
  8
0
  6
Continuous
 62
     7
370
    25
100
AcDbLine
 10
-64.4136066758
 20
172.9096755577
 30
0.0
 11
-104.4136066758
 21
172.9096755577
 31
0.0
  0
LINE
  5
14F
330
1F
100
AcDbEntity
  8
0
  6
Continuous
 62
     7
370
    25
100
AcDbLine
 10
-60.9136066758
 20
169.4096755577
 30
0.0
 11
-107.9136066758
 21
169.4096755577
 31
0.0
  0
SPLINE
  5
150
330
1F
100
AcDbEntity
  8
0
  6
Continuous
 62
     7
370
    25
100
AcDbSpline
210
0.0
220
0.0
230
1.0
 70
     8
 71
     3
 72
    29
 73
    25
 74
     0
 42
0.00000001
 43
0.00000001
 40
0.0
 40
0.0
 40
0.0
 40
0.0
 40
0.0073425907558481
 40
0.0534963089014735
 40
0.0959592704066143
 40
0.1394883777814128
 40
0.1854621980366123
 40
0.2324238072203063
 40
0.2860687356204417
 40
0.3410091551044329
 40
0.3871976317703871
 40
0.4345557163510615
 40
0.4729655899786683
 40
0.5124679348409681
 40
0.550891594980095
 40
0.5903610983780763
 40
0.6410726545028103
 40
0.6932325174679
 40
0.7451746962905562
 40
0.7982915842204715
 40
0.8563794411988436
 40
0.9167126510002357
 40
0.9578217767324988
 40
1.0
 40
1.0
 40
1.0
 40
1.0
 10
-60.92941357554098
 20
86.33293092087409
 30
0.0
 10
-60.92439465305237
 20
86.32554660518807
 30
0.0
 10
-60.88782801918546
 20
86.27174629871573
 30
0.0
 10
-61.04703196459099
 20
86.50538072175034
 30
0.0
 10
-61.39949911144566
 20
87.02969946805645
 30
0.0
 10
-61.94880511114873
 20
87.86659642942759
 30
0.0
 10
-62.66045806793596
 20
88.99476640029386
 30
0.0
 10
-63.53919757943663
 20
90.47362100688936
 30
0.0
 10
-64.53524642074242
 20
92.31227602808208
 30
0.0
 10
-65.50797563988554
 20
94.404915105332
 30
0.0
 10
-66.32861941633433
 20
96.62998285293904
 30
0.0
 10
-66.88498354962462
 20
98.77303499380524
 30
0.0
 10
-67.18455099884969
 20
100.912369482414
 30
0.0
 10
-67.23041008203545
 20
102.9422003110683
 30
0.0
 10
-67.03438025272335
 20
104.9700132846438
 30
0.0
 10
-66.58731715237647
 20
107.109540163854
 30
0.0
 10
-65.8674303866795
 20
109.3245644078304
 30
0.0
 10
-64.92731601968472
 20
111.5061570218551
 30
0.0
 10
-63.91755579992456
 20
113.473257063764
 30
0.0
 10
-62.903911458152
 20
115.2321236466382
 30
0.0
 10
-61.96660349780976
 20
116.7302915040725
 30
0.0
 10
-61.32554853262521
 20
117.70097459312
 30
0.0
 10
-60.97303193158818
 20
118.2226309706211
 30
0.0
 10
-60.93358388277592
 20
118.2804134584716
 30
0.0
 10
-60.91360667579007
 20
118.3096755577313
 30
0.0
  0
LINE
  5
151
330
1F
100
AcDbEntity
  8
0
  6
Continuous
 62
     7
370
    25
100
AcDbLine
 10
-64.4136066758
 20
216.9096755577
 30
0.0
 11
-104.4136066758
 21
216.9096755577
 31
0.0
  0
LINE
  5
152
330
1F
100
AcDbEntity
  8
0
  6
Continuous
 62
     7
370
    25
100
AcDbLine
 10
26.5863933242
 20
118.3096755577
 30
0.0
 11
26.5863933242
 21
86.3096755577
 31
0.0
  0
LINE
  5
153
330
1F
100
AcDbEntity
  8
0
  6
Continuous
 62
     7
370
    25
100
AcDbLine
 10
-64.9136066758
 20
226.9096755577
 30
0.0
 11
-103.9136066758
 21
226.9096755577
 31
0.0
  0
LINE
  5
154
330
1F
100
AcDbEntity
  8
0
  6
Continuous
 62
     7
370
    25
100
AcDbLine
 10
76.9123260526
 20
332.9036174345
 30
0.0
 11
196.9123260526
 21
332.9036174345
 31
0.0
  0
LINE
  5
155
330
1F
100
AcDbEntity
  8
0
  6
Continuous
 62
     7
370
    25
100
AcDbLine
 10
152.9123260526
 20
260.4036174345
 30
0.0
 11
152.9123260526
 21
332.9036174345
 31
0.0
  0
LINE
  5
156
330
1F
100
AcDbEntity
  8
0
  6
Continuous
 62
     7
370
    25
100
AcDbLine
 10
120.9123260526
 20
332.9036174345
 30
0.0
 11
120.9123260526
 21
260.4036174345
 31
0.0
  0
LINE
  5
157
330
1F
100
AcDbEntity
  8
0
  6
Continuous
 62
     7
370
    25
100
AcDbLine
 10
196.9123260526
 20
408.836891403
 30
0.0
 11
76.9123260526
 21
408.836891403
 31
0.0
  0
LINE
  5
158
330
1F
100
AcDbEntity
  8
0
  6
Continuous
 62
     7
370
    25
100
AcDbLine
 10
196.9123260526
 20
408.836891403
 30
0.0
 11
196.9123260526
 21
332.9036174345
 31
0.0
  0
LINE
  5
159
330
1F
100
AcDbEntity
  8
0
  6
Continuous
 62
     7
370
    25
100
AcDbLine
 10
76.9123260526
 20
408.836891403
 30
0.0
 11
76.9123260526
 21
332.9036174345
 31
0.0
  0
LINE
  5
15A
330
1F
100
AcDbEntity
  8
0
  6
Continuous
 62
     7
370
    25
100
AcDbLine
 10
106.9123260526
 20
408.5822403245
 30
0.0
 11
166.9123260526
 21
408.5822403245
 31
0.0
  0
LINE
  5
15B
330
1F
100
AcDbEntity
  8
0
  6
Continuous
 62
     7
370
    25
100
AcDbLine
 10
106.9123260526
 20
334.2249945445
 30
0.0
 11
106.9123260526
 21
408.5822403245
 31
0.0
  0
LINE
  5
15C
330
1F
100
AcDbEntity
  8
0
  6
Continuous
 62
     7
370
    25
100
AcDbLine
 10
166.9123260526
 20
334.2249945445
 30
0.0
 11
106.9123260526
 21
334.2249945445
 31
0.0
  0
LINE
  5
15D
330
1F
100
AcDbEntity
  8
0
  6
Continuous
 62
     7
370
    25
100
AcDbLine
 10
166.9123260526
 20
408.5822403245
 30
0.0
 11
166.9123260526
 21
334.2249945445
 31
0.0
  0
SPLINE
  5
15E
330
1F
100
AcDbEntity
  8
0
  6
Continuous
 62
     7
370
    25
100
AcDbSpline
210
0.0
220
0.0
230
1.0
 70
    11
 71
     3
 72
   104
 73
   100
 74
     0
 42
0.00000001
 43
0.00000001
 40
0.0
 40
0.0
 40
0.0
 40
0.0
 40
0.03125
 40
0.03125
 40
0.046875
 40
0.046875
 40
0.0625
 40
0.0625
 40
0.09375
 40
0.09375
 40
0.109375
 40
0.109375
 40
0.1250000000000001
 40
0.1250000000000001
 40
0.1406250000000001
 40
0.1406250000000001
 40
0.1562500000000001
 40
0.1562500000000001
 40
0.1875000000000001
 40
0.1875000000000001
 40
0.2031250000000001
 40
0.2031250000000001
 40
0.2187500000000001
 40
0.2187500000000001
 40
0.2500000000000001
 40
0.2500000000000001
 40
0.2656250000000001
 40
0.2656250000000001
 40
0.2812500000000001
 40
0.2812500000000001
 40
0.3125000000000001
 40
0.3125000000000001
 40
0.3437500000000001
 40
0.3437500000000001
 40
0.3593750000000001
 40
0.3593750000000001
 40
0.3750000000000001
 40
0.3750000000000001
 40
0.4062500000000001
 40
0.4062500000000001
 40
0.4218750000000001
 40
0.4218750000000001
 40
0.4375000000000001
 40
0.4375000000000001
 40
0.4687500000000001
 40
0.4687500000000001
 40
0.4843750000000001
 40
0.4843750000000001
 40
0.5000000000000001
 40
0.5000000000000001
 40
0.5156250000000001
 40
0.5156250000000001
 40
0.5312500000000001
 40
0.5312500000000001
 40
0.5625000000000001
 40
0.5625000000000001
 40
0.5781250000000001
 40
0.5781250000000001
 40
0.59375
 40
0.59375
 40
0.625
 40
0.625
 40
0.65625
 40
0.65625
 40
0.671875
 40
0.671875
 40
0.6875
 40
0.6875
 40
0.71875
 40
0.71875
 40
0.734375
 40
0.734375
 40
0.7499999999999999
 40
0.7499999999999999
 40
0.7812499999999999
 40
0.7812499999999999
 40
0.7968749999999999
 40
0.7968749999999999
 40
0.8124999999999999
 40
0.8124999999999999
 40
0.8281249999999999
 40
0.8281249999999999
 40
0.8437499999999999
 40
0.8437499999999999
 40
0.875
 40
0.875
 40
0.890625
 40
0.890625
 40
0.90625
 40
0.90625
 40
0.9375
 40
0.9375
 40
0.953125
 40
0.953125
 40
0.96875
 40
0.96875
 40
0.984375
 40
0.984375
 40
1.0
 40
1.0
 40
1.0
 40
1.0
 10
136.9123260526385
 20
358.9036174344978
 30
0.0
 10
137.747268628304
 20
358.9036174344978
 30
0.0
 10
138.5663310997534
 20
358.9864129169246
 30
0.0
 10
139.7725825275865
 20
359.2283511918525
 30
0.0
 10
140.1709178282763
 20
359.3287758339949
 30
0.0
 10
140.96004717918
 20
359.5699293483921
 30
0.0
 10
141.349448665699
 20
359.7105032717199
 30
0.0
 10
142.4807634667886
 20
360.1826367111805
 30
0.0
 10
143.1948194889044
 20
360.5665528754227
 30
0.0
 10
144.2084610928656
 20
361.2457713791895
 30
0.0
 10
144.537768798154
 20
361.4906324338085
 30
0.0
 10
145.164619136047
 20
362.0060481980115
 30
0.0
 10
145.463645843085
 20
362.2774250326433
 30
0.0
 10
146.0338163754981
 20
362.8472822257693
 30
0.0
 10
146.3049586705579
 20
363.1457627710395
 30
0.0
 10
146.819334218429
 20
363.7704725818853
 30
0.0
 10
147.0632377927446
 20
364.0977042412474
 30
0.0
 10
147.7472374135756
 20
365.1167897152444
 30
0.0
 10
148.131243881551
 20
365.8315838279706
 30
0.0
 10
148.6018854547969
 20
366.9573133598252
 30
0.0
 10
148.7410666041694
 20
367.3415417762477
 30
0.0
 10
148.9827595349059
 20
368.1288354205406
 30
0.0
 10
149.0853222815076
 20
368.5333729505103
 30
0.0
 10
149.3294320771815
 20
369.7464993581565
 30
0.0
 10
149.4113184193394
 20
370.5633939782218
 30
0.0
 10
149.4128161402436
 20
371.8010390991294
 30
0.0
 10
149.392712853732
 20
372.217770511657
 30
0.0
 10
149.3110170822487
 20
373.0453728030654
 30
0.0
 10
149.2499301571728
 20
373.4535622784504
 30
0.0
 10
149.0081142099014
 20
374.6619766026216
 30
0.0
 10
148.7693016510039
 20
375.4464498830284
 30
0.0
 10
148.1341779330025
 20
376.9715977615371
 30
0.0
 10
147.7482584431759
 20
377.6876623199988
 30
0.0
 10
147.0717279872612
 20
378.6974994636102
 30
0.0
 10
146.8298047930924
 20
379.0233137175124
 30
0.0
 10
146.3123092239678
 20
379.6532521168015
 30
0.0
 10
146.0376897140306
 20
379.9558921498354
 30
0.0
 10
145.1795456244206
 20
380.8141296197604
 30
0.0
 10
144.5575018976439
 20
381.3263468429122
 30
0.0
 10
143.5465625395006
 20
382.005585383412
 30
0.0
 10
143.1943976629061
 20
382.2180742939053
 30
0.0
 10
142.4748521367821
 20
382.6051889511975
 30
0.0
 10
142.1075098455754
 20
382.7801363746964
 30
0.0
 10
140.9827530508204
 20
383.2502243499329
 30
0.0
 10
140.2028411904315
 20
383.4912159215521
 30
0.0
 10
138.9837625632914
 20
383.7377583671451
 30
0.0
 10
138.5717216899628
 20
383.7998421935995
 30
0.0
 10
137.7512715872428
 20
383.882245265686
 30
0.0
 10
137.3406702508809
 20
383.9030343040483
 30
0.0
 10
136.5187201189204
 20
383.9041764299953
 30
0.0
 10
136.1073713385531
 20
383.8845304641764
 30
0.0
 10
135.2839134145935
 20
383.8039970426543
 30
0.0
 10
134.8698188768457
 20
383.7425345014398
 30
0.0
 10
133.6543027898587
 20
383.4998203185159
 30
0.0
 10
132.8720204186558
 20
383.2609228865958
 30
0.0
 10
131.7383896919967
 20
382.7899172323301
 30
0.0
 10
131.3653075359242
 20
382.6128899392965
 30
0.0
 10
130.6445835455473
 20
382.226399349348
 30
0.0
 10
130.2965409266877
 20
382.01705824053
 30
0.0
 10
129.2876713972273
 20
381.3419068088982
 30
0.0
 10
128.6601151297276
 20
380.8278671269455
 30
0.0
 10
127.5052549321188
 20
379.6754056520052
 30
0.0
 10
126.9921611362525
 20
379.0517822462564
 30
0.0
 10
126.3150218212778
 20
378.0452036356259
 30
0.0
 10
126.1048546373566
 20
377.6977303881829
 30
0.0
 10
125.7165079282604
 20
376.977749904374
 30
0.0
 10
125.5381893875611
 20
376.6042567371521
 30
0.0
 10
125.0642731784979
 20
375.4710710876141
 30
0.0
 10
124.8243261802565
 20
374.690871147001
 30
0.0
 10
124.5795282022073
 20
373.4823289709229
 30
0.0
 10
124.5171259999888
 20
373.0717106985596
 30
0.0
 10
124.4335722722796
 20
372.2427977321667
 30
0.0
 10
124.4127948183504
 20
371.8295934220791
 30
0.0
 10
124.411411991531
 20
370.5936210687234
 30
0.0
 10
124.4911663727155
 20
369.7744624791563
 30
0.0
 10
124.7346102746137
 20
368.5530776881848
 30
0.0
 10
124.8361459082808
 20
368.1502266939336
 30
0.0
 10
125.0757498521495
 20
367.36454055484
 30
0.0
 10
125.2141734884001
 20
366.9798461954222
 30
0.0
 10
125.5276113761444
 20
366.2262824900801
 30
0.0
 10
125.7026255816943
 20
365.8574136013424
 30
0.0
 10
126.0897456581027
 20
365.1354825276053
 30
0.0
 10
126.3021037993615
 20
364.782543467867
 30
0.0
 10
126.9814186964578
 20
363.768905519495
 30
0.0
 10
127.4940551735326
 20
363.1450762114394
 30
0.0
 10
128.3533548715511
 20
362.2844977021658
 30
0.0
 10
128.6566811519866
 20
362.0089555331772
 30
0.0
 10
129.2847076353555
 20
361.4922712975642
 30
0.0
 10
129.6094434655834
 20
361.2507298824684
 30
0.0
 10
130.615713428682
 20
360.5751573241359
 30
0.0
 10
131.3289447470293
 20
360.1896225945269
 30
0.0
 10
132.4682354950182
 20
359.713043629746
 30
0.0
 10
132.85684155282
 20
359.5726737968902
 30
0.0
 10
133.6410267477112
 20
359.3322967634984
 30
0.0
 10
134.0382041192511
 20
359.231605053059
 30
0.0
 10
134.8428780980517
 20
359.069281316768
 30
0.0
 10
135.2503739713668
 20
359.0076465378762
 30
0.0
 10
136.0761098141767
 20
358.9247183807805
 30
0.0
 10
136.4948547648058
 20
358.9036174344978
 30
0.0
 10
136.9123260526385
 20
358.9036174344978
 30
0.0
  0
LINE
  5
15F
330
1F
100
AcDbEntity
  8
0
  6
Continuous
 62
     7
370
    25
100
AcDbLine
 10
166.9123260526
 20
401.274171497
 30
0.0
 11
106.9123260526
 21
401.274171497
 31
0.0
  0
LINE
  5
160
330
1F
100
AcDbEntity
  8
0
  6
Continuous
 62
     7
370
    25
100
AcDbLine
 10
106.9123260526
 20
341.533063372
 30
0.0
 11
166.9123260526
 21
341.533063372
 31
0.0
  0
LINE
  5
161
330
1F
100
AcDbEntity
  8
0
  6
Continuous
 62
     7
370
    25
100
AcDbLine
 10
196.9123260526
 20
423.836891403
 30
0.0
 11
76.9123260526
 21
423.836891403
 31
0.0
  0
LINE
  5
162
330
1F
100
AcDbEntity
  8
0
  6
Continuous
 62
     7
370
    25
100
AcDbLine
 10
196.9123260526
 20
423.836891403
 30
0.0
 11
196.9123260526
 21
408.836891403
 31
0.0
  0
LINE
  5
163
330
1F
100
AcDbEntity
  8
0
  6
Continuous
 62
     7
370
    25
100
AcDbLine
 10
76.9123260526
 20
423.836891403
 30
0.0
 11
76.9123260526
 21
408.836891403
 31
0.0
  0
LINE
  5
164
330
1F
100
AcDbEntity
  8
0
  6
Continuous
 62
     7
370
    25
100
AcDbLine
 10
152.9123260526
 20
260.4036174345
 30
0.0
 11
120.9123260526
 21
260.4036174345
 31
0.0
  0
INSERT
  5
170
330
1F
100
AcDbEntity
  8
FORMAT
 62
     7
100
AcDbBlockReference
  2
SW_CENTERMARKSYMBOL_3
 10
136.9123260526
 20
371.4036174345
 30
0.0
  0
ENDSEC
  0
SECTION
  2
OBJECTS
  0
DICTIONARY
  5
C
330
0
100
AcDbDictionary
281
     1
  3
ACAD_GROUP
350
D
  3
ACAD_LAYOUT
350
1A
  3
ACAD_MLINESTYLE
350
17
  3
ACAD_PLOTSETTINGS
350
19
  3
ACAD_PLOTSTYLENAME
350
E
  3
ACAD_SCALELIST
350
47
  3
DWGPROPS
350
171
  0
DICTIONARY
  5
D
102
{ACAD_REACTORS
330
C
102
}
330
C
100
AcDbDictionary
281
     1
  0
DICTIONARY
  5
1A
102
{ACAD_REACTORS
330
C
102
}
330
C
100
AcDbDictionary
281
     1
  3
Layout1
350
1E
  3
Layout2
350
26
  3
Model
350
22
  0
DICTIONARY
  5
17
102
{ACAD_REACTORS
330
C
102
}
330
C
100
AcDbDictionary
281
     1
  3
Standard
350
18
  0
DICTIONARY
  5
19
102
{ACAD_REACTORS
330
C
102
}
330
C
100
AcDbDictionary
281
     1
  0
ACDBDICTIONARYWDFLT
  5
E
102
{ACAD_REACTORS
330
C
102
}
330
C
100
AcDbDictionary
281
     1
  3
Normal
350
F
100
AcDbDictionaryWithDefault
340
F
  0
DICTIONARY
  5
47
102
{ACAD_REACTORS
330
C
102
}
330
C
100
AcDbDictionary
281
     1
  3
A0
350
48
  3
A1
350
49
  3
A2
350
4A
  3
A3
350
4B
  3
A4
350
4C
  3
A5
350
4D
  3
A6
350
4E
  3
A7
350
4F
  3
A8
350
50
  3
A9
350
51
  3
B0
350
52
  3
B1
350
53
  3
B2
350
54
  3
B3
350
55
  3
B4
350
56
  3
B5
350
57
  3
B6
350
58
  3
B7
350
59
  3
B8
350
5A
  3
B9
350
5B
  3
C0
350
5C
  3
C1
350
5D
  3
C2
350
5E
  3
C3
350
5F
  3
C4
350
60
  3
C5
350
61
  3
C6
350
62
  3
C7
350
63
  3
C8
350
64
  3
C9
350
65
  3
D0
350
66
  3
D1
350
67
  3
D2
350
68
  0
XRECORD
  5
171
102
{ACAD_REACTORS
330
C
102
}
330
C
100
AcDbXrecord
280
     1
  1
DWGPROPS COOKIE
  2

  3

  4

  6

  7

  8
b.kav
  9

300
=
301
=
302
=
303
=
304
=
305
=
306
=
307
=
308
=
309
=
 40
0.0
 41
2459947.248802165
 42
2459947.248802349
  1

 90
        0
  0
LAYOUT
  5
1E
102
{ACAD_REACTORS
330
1A
102
}
330
1A
100
AcDbPlotSettings
  1

  2
none_device
  4

  6

 40
0.0
 41
0.0
 42
0.0
 43
0.0
 44
0.0
 45
0.0
 46
0.0
 47
0.0
 48
0.0
 49
0.0
140
0.0
141
0.0
142
1.0
143
1.0
 70
   688
 72
     1
 73
     0
 74
     5
  7

 75
    16
147
1.0
148
0.0
149
0.0
100
AcDbLayout
  1
Layout1
 70
     1
 71
     1
 10
0.0
 20
0.0
 11
420.0
 21
297.0
 12
0.0
 22
0.0
 32
0.0
 14
1.0000000000E+20
 24
1.0000000000E+20
 34
1.0000000000E+20
 15
-1.0000000000E+20
 25
-1.0000000000E+20
 35
-1.0000000000E+20
146
0.0
 13
0.0
 23
0.0
 33
0.0
 16
1.0
 26
0.0
 36
0.0
 17
0.0
 27
1.0
 37
0.0
 76
     0
330
1B
  0
LAYOUT
  5
26
102
{ACAD_REACTORS
330
1A
102
}
330
1A
100
AcDbPlotSettings
  1

  2
none_device
  4

  6

 40
0.0
 41
0.0
 42
0.0
 43
0.0
 44
0.0
 45
0.0
 46
0.0
 47
0.0
 48
0.0
 49
0.0
140
0.0
141
0.0
142
1.0
143
1.0
 70
   688
 72
     1
 73
     0
 74
     5
  7

 75
    16
147
1.0
148
0.0
149
0.0
100
AcDbLayout
  1
Layout2
 70
     1
 71
     2
 10
0.0
 20
0.0
 11
0.0
 21
0.0
 12
0.0
 22
0.0
 32
0.0
 14
0.0
 24
0.0
 34
0.0
 15
0.0
 25
0.0
 35
0.0
146
0.0
 13
0.0
 23
0.0
 33
0.0
 16
1.0
 26
0.0
 36
0.0
 17
0.0
 27
1.0
 37
0.0
 76
     0
330
23
  0
LAYOUT
  5
22
102
{ACAD_REACTORS
330
1A
102
}
330
1A
100
AcDbPlotSettings
  1

  2
none_device
  4
Letter_(8.50_x_11.00_Inches)
  6

 40
6.35
 41
6.35
 42
6.35000508
 43
6.35000508
 44
215.9
 45
279.4
 46
0.0
 47
0.0
 48
0.0
 49
0.0
140
0.0
141
0.0
142
1.0
143
1.0
 70
  1712
 72
     1
 73
     0
 74
     0
  7

 75
     0
147
1.0
148
0.0
149
0.0
100
AcDbLayout
  1
Model
 70
     1
 71
     0
 10
0.0
 20
0.0
 11
279.4
 21
215.9
 12
0.0
 22
0.0
 32
0.0
 14
0.0
 24
0.0
 34
0.0
 15
279.4
 25
215.9
 35
0.0
146
0.0
 13
0.0
 23
0.0
 33
0.0
 16
1.0
 26
0.0
 36
0.0
 17
0.0
 27
1.0
 37
0.0
 76
     0
330
1F
331
29
  0
MLINESTYLE
  5
18
102
{ACAD_REACTORS
330
17
102
}
330
17
100
AcDbMlineStyle
  2
Standard
 70
     0
  3

 62
   256
 51
90.0
 52
90.0
 71
     2
 49
0.5
 62
   256
  6
BYLAYER
 49
-0.5
 62
   256
  6
BYLAYER
  0
ACDBPLACEHOLDER
  5
F
102
{ACAD_REACTORS
330
E
102
}
330
E
  0
SCALE
  5
48
102
{ACAD_REACTORS
330
47
102
}
330
47
100
AcDbScale
 70
     0
300
1:1
140
1.0
141
1.0
290
     1
  0
SCALE
  5
49
102
{ACAD_REACTORS
330
47
102
}
330
47
100
AcDbScale
 70
     0
300
1:2
140
1.0
141
2.0
290
     0
  0
SCALE
  5
4A
102
{ACAD_REACTORS
330
47
102
}
330
47
100
AcDbScale
 70
     0
300
1:4
140
1.0
141
4.0
290
     0
  0
SCALE
  5
4B
102
{ACAD_REACTORS
330
47
102
}
330
47
100
AcDbScale
 70
     0
300
1:5
140
1.0
141
5.0
290
     0
  0
SCALE
  5
4C
102
{ACAD_REACTORS
330
47
102
}
330
47
100
AcDbScale
 70
     0
300
1:8
140
1.0
141
8.0
290
     0
  0
SCALE
  5
4D
102
{ACAD_REACTORS
330
47
102
}
330
47
100
AcDbScale
 70
     0
300
1:10
140
1.0
141
10.0
290
     0
  0
SCALE
  5
4E
102
{ACAD_REACTORS
330
47
102
}
330
47
100
AcDbScale
 70
     0
300
1:16
140
1.0
141
16.0
290
     0
  0
SCALE
  5
4F
102
{ACAD_REACTORS
330
47
102
}
330
47
100
AcDbScale
 70
     0
300
1:20
140
1.0
141
20.0
290
     0
  0
SCALE
  5
50
102
{ACAD_REACTORS
330
47
102
}
330
47
100
AcDbScale
 70
     0
300
1:30
140
1.0
141
30.0
290
     0
  0
SCALE
  5
51
102
{ACAD_REACTORS
330
47
102
}
330
47
100
AcDbScale
 70
     0
300
1:40
140
1.0
141
40.0
290
     0
  0
SCALE
  5
52
102
{ACAD_REACTORS
330
47
102
}
330
47
100
AcDbScale
 70
     0
300
1:50
140
1.0
141
50.0
290
     0
  0
SCALE
  5
53
102
{ACAD_REACTORS
330
47
102
}
330
47
100
AcDbScale
 70
     0
300
1:100
140
1.0
141
100.0
290
     0
  0
SCALE
  5
54
102
{ACAD_REACTORS
330
47
102
}
330
47
100
AcDbScale
 70
     0
300
2:1
140
2.0
141
1.0
290
     0
  0
SCALE
  5
55
102
{ACAD_REACTORS
330
47
102
}
330
47
100
AcDbScale
 70
     0
300
4:1
140
4.0
141
1.0
290
     0
  0
SCALE
  5
56
102
{ACAD_REACTORS
330
47
102
}
330
47
100
AcDbScale
 70
     0
300
8:1
140
8.0
141
1.0
290
     0
  0
SCALE
  5
57
102
{ACAD_REACTORS
330
47
102
}
330
47
100
AcDbScale
 70
     0
300
10:1
140
10.0
141
1.0
290
     0
  0
SCALE
  5
58
102
{ACAD_REACTORS
330
47
102
}
330
47
100
AcDbScale
 70
     0
300
100:1
140
100.0
141
1.0
290
     0
  0
SCALE
  5
59
102
{ACAD_REACTORS
330
47
102
}
330
47
100
AcDbScale
 70
     0
300
1/128" = 1'-0"
140
0.0078125
141
12.0
290
     0
  0
SCALE
  5
5A
102
{ACAD_REACTORS
330
47
102
}
330
47
100
AcDbScale
 70
     0
300
1/64" = 1'-0"
140
0.015625
141
12.0
290
     0
  0
SCALE
  5
5B
102
{ACAD_REACTORS
330
47
102
}
330
47
100
AcDbScale
 70
     0
300
1/32" = 1'-0"
140
0.03125
141
12.0
290
     0
  0
SCALE
  5
5C
102
{ACAD_REACTORS
330
47
102
}
330
47
100
AcDbScale
 70
     0
300
1/16" = 1'-0"
140
0.0625
141
12.0
290
     0
  0
SCALE
  5
5D
102
{ACAD_REACTORS
330
47
102
}
330
47
100
AcDbScale
 70
     0
300
3/32" = 1'-0"
140
0.09375
141
12.0
290
     0
  0
SCALE
  5
5E
102
{ACAD_REACTORS
330
47
102
}
330
47
100
AcDbScale
 70
     0
300
1/8" = 1'-0"
140
0.125
141
12.0
290
     0
  0
SCALE
  5
5F
102
{ACAD_REACTORS
330
47
102
}
330
47
100
AcDbScale
 70
     0
300
3/16" = 1'-0"
140
0.1875
141
12.0
290
     0
  0
SCALE
  5
60
102
{ACAD_REACTORS
330
47
102
}
330
47
100
AcDbScale
 70
     0
300
1/4" = 1'-0"
140
0.25
141
12.0
290
     0
  0
SCALE
  5
61
102
{ACAD_REACTORS
330
47
102
}
330
47
100
AcDbScale
 70
     0
300
3/8" = 1'-0"
140
0.375
141
12.0
290
     0
  0
SCALE
  5
62
102
{ACAD_REACTORS
330
47
102
}
330
47
100
AcDbScale
 70
     0
300
1/2" = 1'-0"
140
0.5
141
12.0
290
     0
  0
SCALE
  5
63
102
{ACAD_REACTORS
330
47
102
}
330
47
100
AcDbScale
 70
     0
300
3/4" = 1'-0"
140
0.75
141
12.0
290
     0
  0
SCALE
  5
64
102
{ACAD_REACTORS
330
47
102
}
330
47
100
AcDbScale
 70
     0
300
1" = 1'-0"
140
1.0
141
12.0
290
     0
  0
SCALE
  5
65
102
{ACAD_REACTORS
330
47
102
}
330
47
100
AcDbScale
 70
     0
300
1-1/2" = 1'-0"
140
1.5
141
12.0
290
     0
  0
SCALE
  5
66
102
{ACAD_REACTORS
330
47
102
}
330
47
100
AcDbScale
 70
     0
300
3" = 1'-0"
140
3.0
141
12.0
290
     0
  0
SCALE
  5
67
102
{ACAD_REACTORS
330
47
102
}
330
47
100
AcDbScale
 70
     0
300
6" = 1'-0"
140
6.0
141
12.0
290
     0
  0
SCALE
  5
68
102
{ACAD_REACTORS
330
47
102
}
330
47
100
AcDbScale
 70
     0
300
1'-0" = 1'-0"
140
12.0
141
12.0
290
     0
  0
ENDSEC
  0
EOF
